ISO-10303-21;
HEADER;
FILE_DESCRIPTION (( 'STEP AP203' ),
    '1' );
FILE_NAME ('entretoise4.STEP',
    '2020-12-03T10:41:54',
    ( '' ),
    ( '' ),
    'SwSTEP 2.0',
    'SolidWorks 2019',
    '' );
FILE_SCHEMA (( 'CONFIG_CONTROL_DESIGN' ));
ENDSEC;

DATA;
#1 = DIRECTION ( 'NONE',  ( 1.000000000000000000, 0.000000000000000000, 0.000000000000000000 ) ) ;
#2 = ORIENTED_EDGE ( 'NONE', *, *, #334, .T. ) ;
#3 = EDGE_CURVE ( 'NONE', #169, #227, #380, .T. ) ;
#4 = ORIENTED_EDGE ( 'NONE', *, *, #64, .T. ) ;
#5 = PRODUCT_DEFINITION ( 'UNKNOWN', '', #303, #300 ) ;
#6 = APPROVAL_PERSON_ORGANIZATION ( #59, #86, #16 ) ;
#7 = FACE_OUTER_BOUND ( 'NONE', #40, .T. ) ;
#8 = VERTEX_POINT ( 'NONE', #17 ) ;
#9 = PERSON ( 'UNSPECIFIED', 'UNSPECIFIED', 'UNSPECIFIED', ('UNSPECIFIED'), ('UNSPECIFIED'), ('UNSPECIFIED') ) ;
#10 = AXIS2_PLACEMENT_3D ( 'NONE', #188, #158, #1 ) ;
#11 = CARTESIAN_POINT ( 'NONE',  ( 3.249999999999994227, 17.50000000000000000, 10.00000000000000000 ) ) ;
#12 = ADVANCED_FACE ( 'NONE', ( #51 ), #204, .F. ) ;
#13 = ORIENTED_EDGE ( 'NONE', *, *, #129, .T. ) ;
#14 = DIRECTION ( 'NONE',  ( -0.000000000000000000, -0.000000000000000000, -1.000000000000000000 ) ) ;
#15 = ORIENTED_EDGE ( 'NONE', *, *, #166, .F. ) ;
#16 = APPROVAL_ROLE ( '' ) ;
#17 = CARTESIAN_POINT ( 'NONE',  ( -9.999999999999998224, 17.49999999999999645, 10.00000000000000000 ) ) ;
#18 = DIRECTION ( 'NONE',  ( 2.973811673103098158E-16, -1.000000000000000000, 0.000000000000000000 ) ) ;
#19 = CARTESIAN_POINT ( 'NONE',  ( 3.249999999999994227, 17.50000000000000000, 10.00000000000000000 ) ) ;
#20 = ORIENTED_EDGE ( 'NONE', *, *, #274, .F. ) ;
#21 = PERSON_AND_ORGANIZATION ( #9, #272 ) ;
#22 = ORIENTED_EDGE ( 'NONE', *, *, #332, .T. ) ;
#23 = VECTOR ( 'NONE', #186, 1000.000000000000000 ) ;
#24 = DIRECTION ( 'NONE',  ( 0.000000000000000000, 0.000000000000000000, 1.000000000000000000 ) ) ;
#25 = CALENDAR_DATE ( 2020, 3, 12 ) ;
#26 = CARTESIAN_POINT ( 'NONE',  ( 4.884008068028136272E-15, -17.50000000000000000, 0.000000000000000000 ) ) ;
#27 = CC_DESIGN_APPROVAL ( #260, ( #5 ) ) ;
#28 = ADVANCED_FACE ( 'NONE', ( #237 ), #115, .F. ) ;
#29 = PERSON_AND_ORGANIZATION_ROLE ( 'design_owner' ) ;
#30 = CARTESIAN_POINT ( 'NONE',  ( 9.999999999999984013, 17.50000000000000355, 10.00000000000000000 ) ) ;
#31 = VECTOR ( 'NONE', #121, 1000.000000000000000 ) ;
#32 = DIRECTION ( 'NONE',  ( 1.000000000000000000, 0.000000000000000000, -0.000000000000000000 ) ) ;
#33 = DIRECTION ( 'NONE',  ( -0.000000000000000000, -0.000000000000000000, -1.000000000000000000 ) ) ;
#34 =( NAMED_UNIT ( * ) PLANE_ANGLE_UNIT ( ) SI_UNIT ( $, .RADIAN. ) );
#35 = CIRCLE ( 'NONE', #87, 3.250000000000000000 ) ;
#36 = DIRECTION ( 'NONE',  ( -0.000000000000000000, -0.000000000000000000, -1.000000000000000000 ) ) ;
#37 = CARTESIAN_POINT ( 'NONE',  ( -5.831651424511204180E-15, 17.50000000000000000, 0.000000000000000000 ) ) ;
#38 = LOCAL_TIME ( 11, 41, 54.00000000000000000, #196 ) ;
#39 = DIRECTION ( 'NONE',  ( 0.000000000000000000, 0.000000000000000000, 1.000000000000000000 ) ) ;
#40 = EDGE_LOOP ( 'NONE', ( #254, #292, #376, #309 ) ) ;
#41 = CIRCLE ( 'NONE', #295, 9.999999999999991118 ) ;
#42 = CIRCLE ( 'NONE', #214, 3.250000000000000000 ) ;
#43 = CARTESIAN_POINT ( 'NONE',  ( -9.999999999999998224, 17.49999999999999645, 10.00000000000000000 ) ) ;
#44 = ORIENTED_EDGE ( 'NONE', *, *, #179, .F. ) ;
#45 = DIRECTION ( 'NONE',  ( 0.000000000000000000, 0.000000000000000000, 1.000000000000000000 ) ) ;
#46 = PRODUCT_RELATED_PRODUCT_CATEGORY ( 'detail', '', ( #167 ) ) ;
#47 = ORIENTED_EDGE ( 'NONE', *, *, #49, .T. ) ;
#48 = EDGE_LOOP ( 'NONE', ( #229, #73 ) ) ;
#49 = EDGE_CURVE ( 'NONE', #8, #250, #109, .T. ) ;
#50 = AXIS2_PLACEMENT_3D ( 'NONE', #111, #232, #202 ) ;
#51 = FACE_OUTER_BOUND ( 'NONE', #52, .T. ) ;
#52 = EDGE_LOOP ( 'NONE', ( #173, #4, #77, #80 ) ) ;
#53 = VERTEX_POINT ( 'NONE', #259 ) ;
#54 = CLOSED_SHELL ( 'NONE', ( #28, #12, #218, #153, #356, #370, #76, #345, #301, #377 ) ) ;
#55 = LINE ( 'NONE', #329, #269 ) ;
#56 = AXIS2_PLACEMENT_3D ( 'NONE', #222, #39, #279 ) ;
#57 = CARTESIAN_POINT ( 'NONE',  ( -5.831651424511204180E-15, 17.50000000000000000, 10.00000000000000000 ) ) ;
#58 = UNCERTAINTY_MEASURE_WITH_UNIT (LENGTH_MEASURE( 1.000000000000000082E-05 ), #371, 'distance_accuracy_value', 'NONE');
#59 = PERSON_AND_ORGANIZATION ( #9, #272 ) ;
#60 = CARTESIAN_POINT ( 'NONE',  ( -3.249999999999995115, -17.50000000000000000, 10.00000000000000000 ) ) ;
#61 = DIRECTION ( 'NONE',  ( 1.000000000000000000, 0.000000000000000000, 0.000000000000000000 ) ) ;
#62 = AXIS2_PLACEMENT_3D ( 'NONE', #128, #69, #98 ) ;
#63 = DIRECTION ( 'NONE',  ( 1.000000000000000000, 0.000000000000000000, 0.000000000000000000 ) ) ;
#64 = EDGE_CURVE ( 'NONE', #261, #225, #291, .T. ) ;
#65 = DIRECTION ( 'NONE',  ( 1.000000000000000000, 0.000000000000000000, 0.000000000000000000 ) ) ;
#66 = CARTESIAN_POINT ( 'NONE',  ( -9.999999999999998224, 17.49999999999999645, 10.00000000000000000 ) ) ;
#67 = ORIENTED_EDGE ( 'NONE', *, *, #258, .T. ) ;
#68 = DIRECTION ( 'NONE',  ( 0.000000000000000000, 0.000000000000000000, 1.000000000000000000 ) ) ;
#69 = DIRECTION ( 'NONE',  ( -1.000000000000000000, -2.973811673103097665E-16, 0.000000000000000000 ) ) ;
#70 = VERTEX_POINT ( 'NONE', #79 ) ;
#71 = CC_DESIGN_APPROVAL ( #276, ( #110 ) ) ;
#72 = PLANE ( 'NONE',  #327 ) ;
#73 = ORIENTED_EDGE ( 'NONE', *, *, #106, .T. ) ;
#74 = VECTOR ( 'NONE', #310, 1000.000000000000000 ) ;
#75 = CALENDAR_DATE ( 2020, 3, 12 ) ;
#76 = ADVANCED_FACE ( 'NONE', ( #200 ), #294, .T. ) ;
#77 = ORIENTED_EDGE ( 'NONE', *, *, #205, .F. ) ;
#78 = LOCAL_TIME ( 11, 41, 54.00000000000000000, #236 ) ;
#79 = CARTESIAN_POINT ( 'NONE',  ( -9.999999999999998224, 17.49999999999999645, 0.000000000000000000 ) ) ;
#80 = ORIENTED_EDGE ( 'NONE', *, *, #317, .F. ) ;
#81 = EDGE_CURVE ( 'NONE', #97, #286, #321, .T. ) ;
#82 = APPROVAL_DATE_TIME ( #207, #86 ) ;
#83 = ORIENTED_EDGE ( 'NONE', *, *, #287, .F. ) ;
#84 = PERSON_AND_ORGANIZATION_ROLE ( 'design_supplier' ) ;
#85 = ORIENTED_EDGE ( 'NONE', *, *, #334, .F. ) ;
#86 = APPROVAL ( #181, 'UNSPECIFIED' ) ;
#87 = AXIS2_PLACEMENT_3D ( 'NONE', #271, #331, #61 ) ;
#88 = FACE_BOUND ( 'NONE', #140, .T. ) ;
#89 = PERSON_AND_ORGANIZATION ( #9, #272 ) ;
#90 = DIRECTION ( 'NONE',  ( -2.973811673103097665E-16, 1.000000000000000000, -0.000000000000000000 ) ) ;
#91 = PLANE ( 'NONE',  #221 ) ;
#92 = CC_DESIGN_PERSON_AND_ORGANIZATION_ASSIGNMENT ( #89, #298, ( #110 ) ) ;
#93 = DIRECTION ( 'NONE',  ( 1.000000000000000000, 0.000000000000000000, -0.000000000000000000 ) ) ;
#94 = VECTOR ( 'NONE', #248, 1000.000000000000000 ) ;
#95 = CARTESIAN_POINT ( 'NONE',  ( -5.831651424511204180E-15, 17.50000000000000000, 10.00000000000000000 ) ) ;
#96 = CARTESIAN_POINT ( 'NONE',  ( 3.250000000000004441, -17.50000000000000000, 0.000000000000000000 ) ) ;
#97 = VERTEX_POINT ( 'NONE', #243 ) ;
#98 = DIRECTION ( 'NONE',  ( 2.973811673103097665E-16, -1.000000000000000000, 0.000000000000000000 ) ) ;
#99 = ORIENTED_EDGE ( 'NONE', *, *, #211, .F. ) ;
#100 = AXIS2_PLACEMENT_3D ( 'NONE', #107, #378, #175 ) ;
#101 = CARTESIAN_POINT ( 'NONE',  ( 4.884008068028136272E-15, -17.50000000000000000, 10.00000000000000000 ) ) ;
#102 = ORIENTED_EDGE ( 'NONE', *, *, #274, .T. ) ;
#103 = CARTESIAN_POINT ( 'NONE',  ( -5.831651424511204180E-15, 17.50000000000000000, 10.00000000000000000 ) ) ;
#104 = AXIS2_PLACEMENT_3D ( 'NONE', #342, #45, #285 ) ;
#105 = COORDINATED_UNIVERSAL_TIME_OFFSET ( 1, 0, .AHEAD. ) ;
#106 = EDGE_CURVE ( 'NONE', #319, #257, #228, .T. ) ;
#107 = CARTESIAN_POINT ( 'NONE',  ( 4.884008068028136272E-15, -17.50000000000000000, 10.00000000000000000 ) ) ;
#108 = EDGE_CURVE ( 'NONE', #199, #169, #41, .T. ) ;
#109 = LINE ( 'NONE', #172, #139 ) ;
#110 = SECURITY_CLASSIFICATION ( '', '', #325 ) ;
#111 = CARTESIAN_POINT ( 'NONE',  ( 4.884008068028136272E-15, -17.50000000000000000, 10.00000000000000000 ) ) ;
#112 = APPROVAL_STATUS ( 'not_yet_approved' ) ;
#113 = CARTESIAN_POINT ( 'NONE',  ( 9.999999999999984013, 17.50000000000000355, 0.000000000000000000 ) ) ;
#114 = CALENDAR_DATE ( 2020, 3, 12 ) ;
#115 = CYLINDRICAL_SURFACE ( 'NONE', #100, 3.250000000000000000 ) ;
#116 = CC_DESIGN_PERSON_AND_ORGANIZATION_ASSIGNMENT ( #267, #351, ( #303 ) ) ;
#117 = LINE ( 'NONE', #154, #31 ) ;
#118 = DATE_AND_TIME ( #75, #149 ) ;
#119 = LINE ( 'NONE', #60, #252 ) ;
#120 = CARTESIAN_POINT ( 'NONE',  ( -3.250000000000005329, 17.50000000000000000, 10.00000000000000000 ) ) ;
#121 = DIRECTION ( 'NONE',  ( -0.000000000000000000, -0.000000000000000000, -1.000000000000000000 ) ) ;
#122 = DIRECTION ( 'NONE',  ( -0.000000000000000000, -0.000000000000000000, -1.000000000000000000 ) ) ;
#123 = CIRCLE ( 'NONE', #341, 3.250000000000000000 ) ;
#124 = CIRCLE ( 'NONE', #10, 9.999999999999991118 ) ;
#125 = FACE_OUTER_BOUND ( 'NONE', #344, .T. ) ;
#126 = ORIENTED_EDGE ( 'NONE', *, *, #317, .T. ) ;
#127 = APPLICATION_CONTEXT ( 'configuration controlled 3d designs of mechanical parts and assemblies' ) ;
#128 = CARTESIAN_POINT ( 'NONE',  ( 9.999999999999984013, 17.50000000000000355, 10.00000000000000000 ) ) ;
#129 = EDGE_CURVE ( 'NONE', #70, #199, #152, .T. ) ;
#130 = CYLINDRICAL_SURFACE ( 'NONE', #160, 9.999999999999991118 ) ;
#131 = VERTEX_POINT ( 'NONE', #120 ) ;
#132 = AXIS2_PLACEMENT_3D ( 'NONE', #361, #312, #366 ) ;
#133 = MANIFOLD_SOLID_BREP ( 'Boss.-Extru.1', #54 ) ;
#134 = DIRECTION ( 'NONE',  ( 0.000000000000000000, 0.000000000000000000, 1.000000000000000000 ) ) ;
#135 = VERTEX_POINT ( 'NONE', #305 ) ;
#136 = ORIENTED_EDGE ( 'NONE', *, *, #162, .T. ) ;
#137 = DATE_AND_TIME ( #25, #78 ) ;
#138 = ORIENTED_EDGE ( 'NONE', *, *, #64, .F. ) ;
#139 = VECTOR ( 'NONE', #18, 1000.000000000000000 ) ;
#140 = EDGE_LOOP ( 'NONE', ( #364, #83 ) ) ;
#141 = EDGE_CURVE ( 'NONE', #131, #261, #123, .T. ) ;
#142 = DIRECTION ( 'NONE',  ( -2.973811673103097665E-16, 1.000000000000000000, -0.000000000000000000 ) ) ;
#143 = EDGE_LOOP ( 'NONE', ( #311, #145, #85, #190 ) ) ;
#144 = APPLICATION_PROTOCOL_DEFINITION ( 'international standard', 'config_control_design', 1994, #264 ) ;
#145 = ORIENTED_EDGE ( 'NONE', *, *, #155, .F. ) ;
#146 = APPROVAL_STATUS ( 'not_yet_approved' ) ;
#147 = LINE ( 'NONE', #239, #23 ) ;
#148 = DATE_TIME_ROLE ( 'classification_date' ) ;
#149 = LOCAL_TIME ( 11, 41, 54.00000000000000000, #353 ) ;
#150 = DIRECTION ( 'NONE',  ( 1.000000000000000000, 0.000000000000000000, 0.000000000000000000 ) ) ;
#151 = CIRCLE ( 'NONE', #201, 3.250000000000000000 ) ;
#152 = LINE ( 'NONE', #326, #320 ) ;
#153 = ADVANCED_FACE ( 'NONE', ( #266, #187, #299 ), #91, .F. ) ;
#154 = CARTESIAN_POINT ( 'NONE',  ( 3.250000000000004441, -17.50000000000000000, 10.00000000000000000 ) ) ;
#155 = EDGE_CURVE ( 'NONE', #97, #169, #268, .T. ) ;
#156 = DIRECTION ( 'NONE',  ( 0.000000000000000000, 0.000000000000000000, 1.000000000000000000 ) ) ;
#157 = LOCAL_TIME ( 11, 41, 54.00000000000000000, #238 ) ;
#158 = DIRECTION ( 'NONE',  ( 0.000000000000000000, 0.000000000000000000, 1.000000000000000000 ) ) ;
#159 = VECTOR ( 'NONE', #90, 1000.000000000000000 ) ;
#160 = AXIS2_PLACEMENT_3D ( 'NONE', #103, #36, #191 ) ;
#161 = CC_DESIGN_PERSON_AND_ORGANIZATION_ASSIGNMENT ( #176, #183, ( #5 ) ) ;
#162 = EDGE_CURVE ( 'NONE', #261, #131, #208, .T. ) ;
#163 = CARTESIAN_POINT ( 'NONE',  ( 9.999999999999984013, 17.50000000000000355, 10.00000000000000000 ) ) ;
#164 = DIRECTION ( 'NONE',  ( 0.000000000000000000, 0.000000000000000000, 1.000000000000000000 ) ) ;
#165 = DIRECTION ( 'NONE',  ( 1.000000000000000000, 0.000000000000000000, 0.000000000000000000 ) ) ;
#166 = EDGE_CURVE ( 'NONE', #282, #319, #117, .T. ) ;
#167 = PRODUCT ( 'entretoise4', 'entretoise4', '', ( #240 ) ) ;
#168 = PERSON_AND_ORGANIZATION ( #9, #272 ) ;
#169 = VERTEX_POINT ( 'NONE', #359 ) ;
#170 = EDGE_LOOP ( 'NONE', ( #13, #362, #372, #22 ) ) ;
#171 = CC_DESIGN_PERSON_AND_ORGANIZATION_ASSIGNMENT ( #168, #84, ( #303 ) ) ;
#172 = CARTESIAN_POINT ( 'NONE',  ( -9.999999999999998224, 17.49999999999999645, 10.00000000000000000 ) ) ;
#173 = ORIENTED_EDGE ( 'NONE', *, *, #141, .T. ) ;
#174 = PERSON_AND_ORGANIZATION ( #9, #272 ) ;
#175 = DIRECTION ( 'NONE',  ( -1.000000000000000000, 0.000000000000000000, 0.000000000000000000 ) ) ;
#176 = PERSON_AND_ORGANIZATION ( #9, #272 ) ;
#177 = VECTOR ( 'NONE', #33, 1000.000000000000000 ) ;
#178 = CIRCLE ( 'NONE', #185, 9.999999999999991118 ) ;
#179 = EDGE_CURVE ( 'NONE', #257, #319, #35, .T. ) ;
#180 = DIRECTION ( 'NONE',  ( 0.000000000000000000, 0.000000000000000000, 1.000000000000000000 ) ) ;
#181 = APPROVAL_STATUS ( 'not_yet_approved' ) ;
#182 = PLANE ( 'NONE',  #246 ) ;
#183 = PERSON_AND_ORGANIZATION_ROLE ( 'creator' ) ;
#184 = DIRECTION ( 'NONE',  ( -0.000000000000000000, -0.000000000000000000, -1.000000000000000000 ) ) ;
#185 = AXIS2_PLACEMENT_3D ( 'NONE', #384, #210, #63 ) ;
#186 = DIRECTION ( 'NONE',  ( -0.000000000000000000, -0.000000000000000000, -1.000000000000000000 ) ) ;
#187 = FACE_BOUND ( 'NONE', #275, .T. ) ;
#188 = CARTESIAN_POINT ( 'NONE',  ( 4.884008068028136272E-15, -17.50000000000000000, 10.00000000000000000 ) ) ;
#189 = CARTESIAN_POINT ( 'NONE',  ( 3.250000000000004441, -17.50000000000000000, 10.00000000000000000 ) ) ;
#190 = ORIENTED_EDGE ( 'NONE', *, *, #193, .T. ) ;
#191 = DIRECTION ( 'NONE',  ( -1.000000000000000000, 0.000000000000000000, 0.000000000000000000 ) ) ;
#192 = EDGE_LOOP ( 'NONE', ( #15, #339, #67, #265 ) ) ;
#193 = EDGE_CURVE ( 'NONE', #250, #199, #55, .T. ) ;
#194 = DIRECTION ( 'NONE',  ( -2.973811673103098158E-16, 1.000000000000000000, 0.000000000000000000 ) ) ;
#195 = CIRCLE ( 'NONE', #348, 3.250000000000000000 ) ;
#196 = COORDINATED_UNIVERSAL_TIME_OFFSET ( 1, 0, .AHEAD. ) ;
#197 = PRODUCT_DEFINITION_SHAPE ( 'NONE', 'NONE',  #5 ) ;
#198 = EDGE_LOOP ( 'NONE', ( #350, #367 ) ) ;
#199 = VERTEX_POINT ( 'NONE', #306 ) ;
#200 = FACE_OUTER_BOUND ( 'NONE', #143, .T. ) ;
#201 = AXIS2_PLACEMENT_3D ( 'NONE', #297, #24, #387 ) ;
#202 = DIRECTION ( 'NONE',  ( -1.000000000000000000, 0.000000000000000000, 0.000000000000000000 ) ) ;
#203 = SHAPE_DEFINITION_REPRESENTATION ( #197, #289 ) ;
#204 = CYLINDRICAL_SURFACE ( 'NONE', #307, 3.250000000000000000 ) ;
#205 = EDGE_CURVE ( 'NONE', #135, #225, #151, .T. ) ;
#206 = ORIENTED_EDGE ( 'NONE', *, *, #205, .T. ) ;
#207 = DATE_AND_TIME ( #114, #212 ) ;
#208 = CIRCLE ( 'NONE', #388, 3.250000000000000000 ) ;
#209 = DIRECTION ( 'NONE',  ( 1.000000000000000000, 0.000000000000000000, 0.000000000000000000 ) ) ;
#210 = DIRECTION ( 'NONE',  ( 0.000000000000000000, 0.000000000000000000, 1.000000000000000000 ) ) ;
#211 = EDGE_CURVE ( 'NONE', #286, #227, #147, .T. ) ;
#212 = LOCAL_TIME ( 11, 41, 54.00000000000000000, #105 ) ;
#213 = CARTESIAN_POINT ( 'NONE',  ( 9.999999999999994671, -17.49999999999999645, 10.00000000000000000 ) ) ;
#214 = AXIS2_PLACEMENT_3D ( 'NONE', #253, #68, #65 ) ;
#215 = CARTESIAN_POINT ( 'NONE',  ( 9.999999999999984013, 17.50000000000000355, 0.000000000000000000 ) ) ;
#216 = CC_DESIGN_DATE_AND_TIME_ASSIGNMENT ( #316, #148, ( #110 ) ) ;
#217 = FACE_OUTER_BOUND ( 'NONE', #192, .T. ) ;
#218 = ADVANCED_FACE ( 'NONE', ( #270, #242, #88 ), #182, .T. ) ;
#219 = DIRECTION ( 'NONE',  ( 1.000000000000000000, 0.000000000000000000, 0.000000000000000000 ) ) ;
#220 = EDGE_LOOP ( 'NONE', ( #138, #136, #126, #20 ) ) ;
#221 = AXIS2_PLACEMENT_3D ( 'NONE', #360, #241, #32 ) ;
#222 = CARTESIAN_POINT ( 'NONE',  ( 4.884008068028136272E-15, -17.50000000000000000, 10.00000000000000000 ) ) ;
#223 = ORIENTED_EDGE ( 'NONE', *, *, #278, .T. ) ;
#224 = LINE ( 'NONE', #43, #74 ) ;
#225 = VERTEX_POINT ( 'NONE', #357 ) ;
#226 = CALENDAR_DATE ( 2020, 3, 12 ) ;
#227 = VERTEX_POINT ( 'NONE', #215 ) ;
#228 = CIRCLE ( 'NONE', #365, 3.250000000000000000 ) ;
#229 = ORIENTED_EDGE ( 'NONE', *, *, #179, .T. ) ;
#230 = DIRECTION ( 'NONE',  ( -0.000000000000000000, -0.000000000000000000, -1.000000000000000000 ) ) ;
#231 = CC_DESIGN_APPROVAL ( #86, ( #303 ) ) ;
#232 = DIRECTION ( 'NONE',  ( -0.000000000000000000, -0.000000000000000000, -1.000000000000000000 ) ) ;
#233 = CIRCLE ( 'NONE', #56, 3.250000000000000000 ) ;
#234 = DATE_AND_TIME ( #381, #157 ) ;
#235 = DIRECTION ( 'NONE',  ( -0.000000000000000000, -0.000000000000000000, -1.000000000000000000 ) ) ;
#236 = COORDINATED_UNIVERSAL_TIME_OFFSET ( 1, 0, .AHEAD. ) ;
#237 = FACE_OUTER_BOUND ( 'NONE', #382, .T. ) ;
#238 = COORDINATED_UNIVERSAL_TIME_OFFSET ( 1, 0, .AHEAD. ) ;
#239 = CARTESIAN_POINT ( 'NONE',  ( 9.999999999999984013, 17.50000000000000355, 10.00000000000000000 ) ) ;
#240 = MECHANICAL_CONTEXT ( 'NONE', #264, 'mechanical' ) ;
#241 = DIRECTION ( 'NONE',  ( 0.000000000000000000, 0.000000000000000000, 1.000000000000000000 ) ) ;
#242 = FACE_OUTER_BOUND ( 'NONE', #374, .T. ) ;
#243 = CARTESIAN_POINT ( 'NONE',  ( 9.999999999999994671, -17.49999999999999645, 10.00000000000000000 ) ) ;
#244 = CIRCLE ( 'NONE', #389, 9.999999999999991118 ) ;
#245 = DIRECTION ( 'NONE',  ( 2.973811673103098158E-16, -1.000000000000000000, 0.000000000000000000 ) ) ;
#246 = AXIS2_PLACEMENT_3D ( 'NONE', #385, #386, #93 ) ;
#247 = EDGE_CURVE ( 'NONE', #286, #8, #178, .T. ) ;
#248 = DIRECTION ( 'NONE',  ( -0.000000000000000000, -0.000000000000000000, -1.000000000000000000 ) ) ;
#249 = ORIENTED_EDGE ( 'NONE', *, *, #129, .F. ) ;
#250 = VERTEX_POINT ( 'NONE', #304 ) ;
#251 = FACE_OUTER_BOUND ( 'NONE', #220, .T. ) ;
#252 = VECTOR ( 'NONE', #184, 1000.000000000000000 ) ;
#253 = CARTESIAN_POINT ( 'NONE',  ( 4.884008068028136272E-15, -17.50000000000000000, 10.00000000000000000 ) ) ;
#254 = ORIENTED_EDGE ( 'NONE', *, *, #363, .T. ) ;
#255 = ORIENTED_EDGE ( 'NONE', *, *, #3, .F. ) ;
#256 = PERSON_AND_ORGANIZATION ( #9, #272 ) ;
#257 = VERTEX_POINT ( 'NONE', #330 ) ;
#258 = EDGE_CURVE ( 'NONE', #53, #257, #119, .T. ) ;
#259 = CARTESIAN_POINT ( 'NONE',  ( -3.249999999999995115, -17.50000000000000000, 10.00000000000000000 ) ) ;
#260 = APPROVAL ( #112, 'UNSPECIFIED' ) ;
#261 = VERTEX_POINT ( 'NONE', #11 ) ;
#262 = APPROVAL_PERSON_ORGANIZATION ( #256, #276, #373 ) ;
#263 = ORIENTED_EDGE ( 'NONE', *, *, #155, .T. ) ;
#264 = APPLICATION_CONTEXT ( 'configuration controlled 3d designs of mechanical parts and assemblies' ) ;
#265 = ORIENTED_EDGE ( 'NONE', *, *, #106, .F. ) ;
#266 = FACE_OUTER_BOUND ( 'NONE', #347, .T. ) ;
#267 = PERSON_AND_ORGANIZATION ( #9, #272 ) ;
#268 = LINE ( 'NONE', #213, #177 ) ;
#269 = VECTOR ( 'NONE', #122, 1000.000000000000000 ) ;
#270 = FACE_BOUND ( 'NONE', #198, .T. ) ;
#271 = CARTESIAN_POINT ( 'NONE',  ( 4.884008068028136272E-15, -17.50000000000000000, 0.000000000000000000 ) ) ;
#272 = ORGANIZATION ( 'UNSPECIFIED', 'UNSPECIFIED', '' ) ;
#273 = DIRECTION ( 'NONE',  ( 0.000000000000000000, 0.000000000000000000, 1.000000000000000000 ) ) ;
#274 = EDGE_CURVE ( 'NONE', #225, #135, #195, .T. ) ;
#275 = EDGE_LOOP ( 'NONE', ( #206, #102 ) ) ;
#276 = APPROVAL ( #146, 'UNSPECIFIED' ) ;
#277 =( NAMED_UNIT ( * ) SI_UNIT ( $, .STERADIAN. ) SOLID_ANGLE_UNIT ( ) );
#278 = EDGE_CURVE ( 'NONE', #53, #282, #42, .T. ) ;
#279 = DIRECTION ( 'NONE',  ( 1.000000000000000000, 0.000000000000000000, 0.000000000000000000 ) ) ;
#280 = DIRECTION ( 'NONE',  ( 1.000000000000000000, 2.973811673103098158E-16, -0.000000000000000000 ) ) ;
#281 = AXIS2_PLACEMENT_3D ( 'NONE', #101, #14, #335 ) ;
#282 = VERTEX_POINT ( 'NONE', #189 ) ;
#283 = PLANE ( 'NONE',  #62 ) ;
#284 = ORIENTED_EDGE ( 'NONE', *, *, #166, .T. ) ;
#285 = DIRECTION ( 'NONE',  ( 1.000000000000000000, 0.000000000000000000, 0.000000000000000000 ) ) ;
#286 = VERTEX_POINT ( 'NONE', #163 ) ;
#287 = EDGE_CURVE ( 'NONE', #282, #53, #233, .T. ) ;
#288 = CARTESIAN_POINT ( 'NONE',  ( -5.831651424511204180E-15, 17.50000000000000000, 10.00000000000000000 ) ) ;
#289 = ADVANCED_BREP_SHAPE_REPRESENTATION ( 'entretoise4', ( #133, #104 ), #314 ) ;
#290 = CC_DESIGN_PERSON_AND_ORGANIZATION_ASSIGNMENT ( #174, #29, ( #167 ) ) ;
#291 = LINE ( 'NONE', #19, #379 ) ;
#292 = ORIENTED_EDGE ( 'NONE', *, *, #332, .F. ) ;
#293 = CC_DESIGN_SECURITY_CLASSIFICATION ( #110, ( #303 ) ) ;
#294 = CYLINDRICAL_SURFACE ( 'NONE', #50, 9.999999999999991118 ) ;
#295 = AXIS2_PLACEMENT_3D ( 'NONE', #26, #358, #209 ) ;
#296 = APPROVAL_ROLE ( '' ) ;
#297 = CARTESIAN_POINT ( 'NONE',  ( -5.831651424511204180E-15, 17.50000000000000000, 0.000000000000000000 ) ) ;
#298 = PERSON_AND_ORGANIZATION_ROLE ( 'classification_officer' ) ;
#299 = FACE_BOUND ( 'NONE', #48, .T. ) ;
#300 = DESIGN_CONTEXT ( 'detailed design', #127, 'design' ) ;
#301 = ADVANCED_FACE ( 'NONE', ( #251 ), #368, .F. ) ;
#302 = APPROVAL_DATE_TIME ( #234, #260 ) ;
#303 = PRODUCT_DEFINITION_FORMATION_WITH_SPECIFIED_SOURCE ( 'ANY', '', #167, .NOT_KNOWN. ) ;
#304 = CARTESIAN_POINT ( 'NONE',  ( -9.999999999999985789, -17.50000000000000000, 10.00000000000000000 ) ) ;
#305 = CARTESIAN_POINT ( 'NONE',  ( -3.250000000000005329, 17.50000000000000000, 0.000000000000000000 ) ) ;
#306 = CARTESIAN_POINT ( 'NONE',  ( -9.999999999999985789, -17.50000000000000000, 0.000000000000000000 ) ) ;
#307 = AXIS2_PLACEMENT_3D ( 'NONE', #288, #235, #323 ) ;
#308 = CYLINDRICAL_SURFACE ( 'NONE', #281, 3.250000000000000000 ) ;
#309 = ORIENTED_EDGE ( 'NONE', *, *, #211, .T. ) ;
#310 = DIRECTION ( 'NONE',  ( -0.000000000000000000, -0.000000000000000000, -1.000000000000000000 ) ) ;
#311 = ORIENTED_EDGE ( 'NONE', *, *, #108, .T. ) ;
#312 = DIRECTION ( 'NONE',  ( -0.000000000000000000, -0.000000000000000000, -1.000000000000000000 ) ) ;
#313 = CARTESIAN_POINT ( 'NONE',  ( -5.831651424511204180E-15, 17.50000000000000000, 0.000000000000000000 ) ) ;
#314 =( GEOMETRIC_REPRESENTATION_CONTEXT ( 3 ) GLOBAL_UNCERTAINTY_ASSIGNED_CONTEXT ( ( #58 ) ) GLOBAL_UNIT_ASSIGNED_CONTEXT ( ( #371, #34, #277 ) ) REPRESENTATION_CONTEXT ( 'NONE', 'WORKASPACE' ) );
#315 = ORIENTED_EDGE ( 'NONE', *, *, #247, .T. ) ;
#316 = DATE_AND_TIME ( #226, #38 ) ;
#317 = EDGE_CURVE ( 'NONE', #131, #135, #338, .T. ) ;
#318 = ORIENTED_EDGE ( 'NONE', *, *, #258, .F. ) ;
#319 = VERTEX_POINT ( 'NONE', #96 ) ;
#320 = VECTOR ( 'NONE', #245, 1000.000000000000000 ) ;
#321 = LINE ( 'NONE', #30, #159 ) ;
#322 = DATE_TIME_ROLE ( 'creation_date' ) ;
#323 = DIRECTION ( 'NONE',  ( -1.000000000000000000, 0.000000000000000000, 0.000000000000000000 ) ) ;
#324 = APPROVAL_PERSON_ORGANIZATION ( #21, #260, #296 ) ;
#325 = SECURITY_CLASSIFICATION_LEVEL ( 'unclassified' ) ;
#326 = CARTESIAN_POINT ( 'NONE',  ( -9.999999999999998224, 17.49999999999999645, 0.000000000000000000 ) ) ;
#327 = AXIS2_PLACEMENT_3D ( 'NONE', #66, #280, #194 ) ;
#328 = VECTOR ( 'NONE', #142, 1000.000000000000000 ) ;
#329 = CARTESIAN_POINT ( 'NONE',  ( -9.999999999999985789, -17.50000000000000000, 10.00000000000000000 ) ) ;
#330 = CARTESIAN_POINT ( 'NONE',  ( -3.249999999999995115, -17.50000000000000000, 0.000000000000000000 ) ) ;
#331 = DIRECTION ( 'NONE',  ( 0.000000000000000000, 0.000000000000000000, 1.000000000000000000 ) ) ;
#332 = EDGE_CURVE ( 'NONE', #8, #70, #224, .T. ) ;
#333 = DIRECTION ( 'NONE',  ( 1.000000000000000000, 0.000000000000000000, 0.000000000000000000 ) ) ;
#334 = EDGE_CURVE ( 'NONE', #250, #97, #124, .T. ) ;
#335 = DIRECTION ( 'NONE',  ( -1.000000000000000000, 0.000000000000000000, 0.000000000000000000 ) ) ;
#336 = CARTESIAN_POINT ( 'NONE',  ( -3.250000000000005329, 17.50000000000000000, 10.00000000000000000 ) ) ;
#337 = ORIENTED_EDGE ( 'NONE', *, *, #108, .F. ) ;
#338 = LINE ( 'NONE', #336, #94 ) ;
#339 = ORIENTED_EDGE ( 'NONE', *, *, #287, .T. ) ;
#340 = FACE_OUTER_BOUND ( 'NONE', #170, .T. ) ;
#341 = AXIS2_PLACEMENT_3D ( 'NONE', #57, #180, #150 ) ;
#342 = CARTESIAN_POINT ( 'NONE',  ( 0.000000000000000000, 0.000000000000000000, 0.000000000000000000 ) ) ;
#343 = ORIENTED_EDGE ( 'NONE', *, *, #363, .F. ) ;
#344 = EDGE_LOOP ( 'NONE', ( #346, #99, #369, #263 ) ) ;
#345 = ADVANCED_FACE ( 'NONE', ( #125 ), #283, .F. ) ;
#346 = ORIENTED_EDGE ( 'NONE', *, *, #3, .T. ) ;
#347 = EDGE_LOOP ( 'NONE', ( #343, #255, #337, #249 ) ) ;
#348 = AXIS2_PLACEMENT_3D ( 'NONE', #37, #134, #165 ) ;
#349 = APPROVAL_DATE_TIME ( #118, #276 ) ;
#350 = ORIENTED_EDGE ( 'NONE', *, *, #141, .F. ) ;
#351 = PERSON_AND_ORGANIZATION_ROLE ( 'creator' ) ;
#352 = ORIENTED_EDGE ( 'NONE', *, *, #81, .T. ) ;
#353 = COORDINATED_UNIVERSAL_TIME_OFFSET ( 1, 0, .AHEAD. ) ;
#354 = CARTESIAN_POINT ( 'NONE',  ( 4.884008068028136272E-15, -17.50000000000000000, 0.000000000000000000 ) ) ;
#355 = APPLICATION_PROTOCOL_DEFINITION ( 'international standard', 'config_control_design', 1994, #127 ) ;
#356 = ADVANCED_FACE ( 'NONE', ( #7 ), #130, .T. ) ;
#357 = CARTESIAN_POINT ( 'NONE',  ( 3.249999999999994227, 17.50000000000000000, 0.000000000000000000 ) ) ;
#358 = DIRECTION ( 'NONE',  ( 0.000000000000000000, 0.000000000000000000, 1.000000000000000000 ) ) ;
#359 = CARTESIAN_POINT ( 'NONE',  ( 9.999999999999994671, -17.49999999999999645, 0.000000000000000000 ) ) ;
#360 = CARTESIAN_POINT ( 'NONE',  ( -5.831651424511204180E-15, 17.50000000000000000, 0.000000000000000000 ) ) ;
#361 = CARTESIAN_POINT ( 'NONE',  ( -5.831651424511204180E-15, 17.50000000000000000, 10.00000000000000000 ) ) ;
#362 = ORIENTED_EDGE ( 'NONE', *, *, #193, .F. ) ;
#363 = EDGE_CURVE ( 'NONE', #227, #70, #244, .T. ) ;
#364 = ORIENTED_EDGE ( 'NONE', *, *, #278, .F. ) ;
#365 = AXIS2_PLACEMENT_3D ( 'NONE', #354, #273, #333 ) ;
#366 = DIRECTION ( 'NONE',  ( -1.000000000000000000, 0.000000000000000000, 0.000000000000000000 ) ) ;
#367 = ORIENTED_EDGE ( 'NONE', *, *, #162, .F. ) ;
#368 = CYLINDRICAL_SURFACE ( 'NONE', #132, 3.250000000000000000 ) ;
#369 = ORIENTED_EDGE ( 'NONE', *, *, #81, .F. ) ;
#370 = ADVANCED_FACE ( 'NONE', ( #340 ), #72, .F. ) ;
#371 =( LENGTH_UNIT ( ) NAMED_UNIT ( * ) SI_UNIT ( .MILLI., .METRE. ) );
#372 = ORIENTED_EDGE ( 'NONE', *, *, #49, .F. ) ;
#373 = APPROVAL_ROLE ( '' ) ;
#374 = EDGE_LOOP ( 'NONE', ( #315, #47, #2, #352 ) ) ;
#375 = CC_DESIGN_DATE_AND_TIME_ASSIGNMENT ( #137, #322, ( #5 ) ) ;
#376 = ORIENTED_EDGE ( 'NONE', *, *, #247, .F. ) ;
#377 = ADVANCED_FACE ( 'NONE', ( #217 ), #308, .F. ) ;
#378 = DIRECTION ( 'NONE',  ( -0.000000000000000000, -0.000000000000000000, -1.000000000000000000 ) ) ;
#379 = VECTOR ( 'NONE', #230, 1000.000000000000000 ) ;
#380 = LINE ( 'NONE', #113, #328 ) ;
#381 = CALENDAR_DATE ( 2020, 3, 12 ) ;
#382 = EDGE_LOOP ( 'NONE', ( #223, #284, #44, #318 ) ) ;
#383 = DIRECTION ( 'NONE',  ( 1.000000000000000000, 0.000000000000000000, 0.000000000000000000 ) ) ;
#384 = CARTESIAN_POINT ( 'NONE',  ( -5.831651424511204180E-15, 17.50000000000000000, 10.00000000000000000 ) ) ;
#385 = CARTESIAN_POINT ( 'NONE',  ( -5.831651424511204180E-15, 17.50000000000000000, 10.00000000000000000 ) ) ;
#386 = DIRECTION ( 'NONE',  ( 0.000000000000000000, 0.000000000000000000, 1.000000000000000000 ) ) ;
#387 = DIRECTION ( 'NONE',  ( 1.000000000000000000, 0.000000000000000000, 0.000000000000000000 ) ) ;
#388 = AXIS2_PLACEMENT_3D ( 'NONE', #95, #156, #383 ) ;
#389 = AXIS2_PLACEMENT_3D ( 'NONE', #313, #164, #219 ) ;
ENDSEC;
END-ISO-10303-21;
