ISO-10303-21;
HEADER;
FILE_DESCRIPTION(('FreeCAD Model'),'2;1');
FILE_NAME('/Users/Shared/olive/coupleur4.step','2021-02-21T16:41:18',(
    'FreeCAD'),('FreeCAD'),'Open CASCADE STEP processor 6.5','FreeCAD',
  'Unknown');
FILE_SCHEMA(('AUTOMOTIVE_DESIGN_CC2 { 1 2 10303 214 -1 1 5 4 }'));
ENDSEC;
DATA;
#1 = APPLICATION_PROTOCOL_DEFINITION('committee draft',
  'automotive_design',1997,#2);
#2 = APPLICATION_CONTEXT(
  'core data for automotive mechanical design processes');
#3 = SHAPE_DEFINITION_REPRESENTATION(#4,#10);
#4 = PRODUCT_DEFINITION_SHAPE('','',#5);
#5 = PRODUCT_DEFINITION('design','',#6,#9);
#6 = PRODUCT_DEFINITION_FORMATION('','',#7);
#7 = PRODUCT('Open CASCADE STEP translator 6.5 1',
  'Open CASCADE STEP translator 6.5 1','',(#8));
#8 = MECHANICAL_CONTEXT('',#2,'mechanical');
#9 = PRODUCT_DEFINITION_CONTEXT('part definition',#2,'design');
#10 = ADVANCED_BREP_SHAPE_REPRESENTATION('',(#11,#15),#486);
#11 = AXIS2_PLACEMENT_3D('',#12,#13,#14);
#12 = CARTESIAN_POINT('',(0.,0.,0.));
#13 = DIRECTION('',(0.,0.,1.));
#14 = DIRECTION('',(1.,0.,-0.));
#15 = MANIFOLD_SOLID_BREP('',#16);
#16 = CLOSED_SHELL('',(#17,#106,#140,#197,#326,#378,#453,#479));
#17 = ADVANCED_FACE('',(#18),#31,.F.);
#18 = FACE_BOUND('',#19,.F.);
#19 = EDGE_LOOP('',(#20,#49,#79,#80));
#20 = ORIENTED_EDGE('',*,*,#21,.T.);
#21 = EDGE_CURVE('',#22,#24,#26,.T.);
#22 = VERTEX_POINT('',#23);
#23 = CARTESIAN_POINT('',(8.5,0.,14.));
#24 = VERTEX_POINT('',#25);
#25 = CARTESIAN_POINT('',(8.5,0.,28.));
#26 = SEAM_CURVE('',#27,(#30,#42),.PCURVE_S1.);
#27 = B_SPLINE_CURVE_WITH_KNOTS('',1,(#28,#29),.UNSPECIFIED.,.F.,.F.,(2,
    2),(-28.,-14.),.PIECEWISE_BEZIER_KNOTS.);
#28 = CARTESIAN_POINT('',(8.5,-1.040949779275E-15,14.));
#29 = CARTESIAN_POINT('',(8.5,-1.040949779275E-15,28.));
#30 = PCURVE('',#31,#36);
#31 = CYLINDRICAL_SURFACE('',#32,8.5);
#32 = AXIS2_PLACEMENT_3D('',#33,#34,#35);
#33 = CARTESIAN_POINT('',(0.,0.,42.));
#34 = DIRECTION('',(0.,0.,1.));
#35 = DIRECTION('',(-1.,0.,0.));
#36 = DEFINITIONAL_REPRESENTATION('',(#37),#41);
#37 = LINE('',#38,#39);
#38 = CARTESIAN_POINT('',(9.424777960769,0.));
#39 = VECTOR('',#40,1.);
#40 = DIRECTION('',(0.,1.));
#41 = ( GEOMETRIC_REPRESENTATION_CONTEXT(2) 
PARAMETRIC_REPRESENTATION_CONTEXT() REPRESENTATION_CONTEXT('2D SPACE',''
  ) );
#42 = PCURVE('',#31,#43);
#43 = DEFINITIONAL_REPRESENTATION('',(#44),#48);
#44 = LINE('',#45,#46);
#45 = CARTESIAN_POINT('',(3.14159265359,0.));
#46 = VECTOR('',#47,1.);
#47 = DIRECTION('',(0.,1.));
#48 = ( GEOMETRIC_REPRESENTATION_CONTEXT(2) 
PARAMETRIC_REPRESENTATION_CONTEXT() REPRESENTATION_CONTEXT('2D SPACE',''
  ) );
#49 = ORIENTED_EDGE('',*,*,#50,.T.);
#50 = EDGE_CURVE('',#24,#24,#51,.T.);
#51 = SURFACE_CURVE('',#52,(#57,#63),.PCURVE_S1.);
#52 = CIRCLE('',#53,8.5);
#53 = AXIS2_PLACEMENT_3D('',#54,#55,#56);
#54 = CARTESIAN_POINT('',(0.,0.,28.));
#55 = DIRECTION('',(0.,0.,-1.));
#56 = DIRECTION('',(1.,0.,0.));
#57 = PCURVE('',#31,#58);
#58 = DEFINITIONAL_REPRESENTATION('',(#59),#62);
#59 = B_SPLINE_CURVE_WITH_KNOTS('',1,(#60,#61),.UNSPECIFIED.,.F.,.F.,(2,
    2),(0.,6.28318530718),.PIECEWISE_BEZIER_KNOTS.);
#60 = CARTESIAN_POINT('',(9.424777960769,-14.));
#61 = CARTESIAN_POINT('',(3.14159265359,-14.));
#62 = ( GEOMETRIC_REPRESENTATION_CONTEXT(2) 
PARAMETRIC_REPRESENTATION_CONTEXT() REPRESENTATION_CONTEXT('2D SPACE',''
  ) );
#63 = PCURVE('',#64,#69);
#64 = PLANE('',#65);
#65 = AXIS2_PLACEMENT_3D('',#66,#67,#68);
#66 = CARTESIAN_POINT('',(0.,0.,28.));
#67 = DIRECTION('',(0.,0.,1.));
#68 = DIRECTION('',(1.,0.,-0.));
#69 = DEFINITIONAL_REPRESENTATION('',(#70),#78);
#70 = ( BOUNDED_CURVE() B_SPLINE_CURVE(2,(#71,#72,#73,#74,#75,#76,#77),
.UNSPECIFIED.,.T.,.F.) B_SPLINE_CURVE_WITH_KNOTS((1,2,2,2,2,1),(
    -2.094395102393,0.,2.094395102393,4.188790204786,6.28318530718,
8.377580409573),.UNSPECIFIED.) CURVE() GEOMETRIC_REPRESENTATION_ITEM() 
RATIONAL_B_SPLINE_CURVE((1.,0.5,1.,0.5,1.,0.5,1.)) REPRESENTATION_ITEM(
  '') );
#71 = CARTESIAN_POINT('',(8.5,0.));
#72 = CARTESIAN_POINT('',(8.5,-14.72243186433));
#73 = CARTESIAN_POINT('',(-4.25,-7.361215932168));
#74 = CARTESIAN_POINT('',(-17.,-2.08189955855E-15));
#75 = CARTESIAN_POINT('',(-4.25,7.361215932168));
#76 = CARTESIAN_POINT('',(8.5,14.722431864335));
#77 = CARTESIAN_POINT('',(8.5,0.));
#78 = ( GEOMETRIC_REPRESENTATION_CONTEXT(2) 
PARAMETRIC_REPRESENTATION_CONTEXT() REPRESENTATION_CONTEXT('2D SPACE',''
  ) );
#79 = ORIENTED_EDGE('',*,*,#21,.F.);
#80 = ORIENTED_EDGE('',*,*,#81,.T.);
#81 = EDGE_CURVE('',#22,#22,#82,.T.);
#82 = SURFACE_CURVE('',#83,(#88,#94),.PCURVE_S1.);
#83 = CIRCLE('',#84,8.5);
#84 = AXIS2_PLACEMENT_3D('',#85,#86,#87);
#85 = CARTESIAN_POINT('',(0.,0.,14.));
#86 = DIRECTION('',(0.,0.,1.));
#87 = DIRECTION('',(1.,0.,-0.));
#88 = PCURVE('',#31,#89);
#89 = DEFINITIONAL_REPRESENTATION('',(#90),#93);
#90 = B_SPLINE_CURVE_WITH_KNOTS('',1,(#91,#92),.UNSPECIFIED.,.F.,.F.,(2,
    2),(0.,6.28318530718),.PIECEWISE_BEZIER_KNOTS.);
#91 = CARTESIAN_POINT('',(3.14159265359,-28.));
#92 = CARTESIAN_POINT('',(9.424777960769,-28.));
#93 = ( GEOMETRIC_REPRESENTATION_CONTEXT(2) 
PARAMETRIC_REPRESENTATION_CONTEXT() REPRESENTATION_CONTEXT('2D SPACE',''
  ) );
#94 = PCURVE('',#95,#100);
#95 = PLANE('',#96);
#96 = AXIS2_PLACEMENT_3D('',#97,#98,#99);
#97 = CARTESIAN_POINT('',(0.,0.,14.));
#98 = DIRECTION('',(0.,0.,1.));
#99 = DIRECTION('',(1.,0.,-0.));
#100 = DEFINITIONAL_REPRESENTATION('',(#101),#105);
#101 = CIRCLE('',#102,8.5);
#102 = AXIS2_PLACEMENT_2D('',#103,#104);
#103 = CARTESIAN_POINT('',(0.,0.));
#104 = DIRECTION('',(1.,0.));
#105 = ( GEOMETRIC_REPRESENTATION_CONTEXT(2) 
PARAMETRIC_REPRESENTATION_CONTEXT() REPRESENTATION_CONTEXT('2D SPACE',''
  ) );
#106 = ADVANCED_FACE('',(#107,#110),#95,.T.);
#107 = FACE_BOUND('',#108,.T.);
#108 = EDGE_LOOP('',(#109));
#109 = ORIENTED_EDGE('',*,*,#81,.T.);
#110 = FACE_BOUND('',#111,.T.);
#111 = EDGE_LOOP('',(#112));
#112 = ORIENTED_EDGE('',*,*,#113,.F.);
#113 = EDGE_CURVE('',#114,#114,#116,.T.);
#114 = VERTEX_POINT('',#115);
#115 = CARTESIAN_POINT('',(5.,0.,14.));
#116 = SURFACE_CURVE('',#117,(#122,#129),.PCURVE_S1.);
#117 = CIRCLE('',#118,5.);
#118 = AXIS2_PLACEMENT_3D('',#119,#120,#121);
#119 = CARTESIAN_POINT('',(0.,0.,14.));
#120 = DIRECTION('',(0.,0.,1.));
#121 = DIRECTION('',(1.,0.,-0.));
#122 = PCURVE('',#95,#123);
#123 = DEFINITIONAL_REPRESENTATION('',(#124),#128);
#124 = CIRCLE('',#125,5.);
#125 = AXIS2_PLACEMENT_2D('',#126,#127);
#126 = CARTESIAN_POINT('',(0.,0.));
#127 = DIRECTION('',(1.,0.));
#128 = ( GEOMETRIC_REPRESENTATION_CONTEXT(2) 
PARAMETRIC_REPRESENTATION_CONTEXT() REPRESENTATION_CONTEXT('2D SPACE',''
  ) );
#129 = PCURVE('',#130,#135);
#130 = CYLINDRICAL_SURFACE('',#131,5.);
#131 = AXIS2_PLACEMENT_3D('',#132,#133,#134);
#132 = CARTESIAN_POINT('',(0.,0.,19.));
#133 = DIRECTION('',(0.,0.,1.));
#134 = DIRECTION('',(-1.,0.,0.));
#135 = DEFINITIONAL_REPRESENTATION('',(#136),#139);
#136 = B_SPLINE_CURVE_WITH_KNOTS('',1,(#137,#138),.UNSPECIFIED.,.F.,.F.,
  (2,2),(0.,6.28318530718),.PIECEWISE_BEZIER_KNOTS.);
#137 = CARTESIAN_POINT('',(3.14159265359,-5.));
#138 = CARTESIAN_POINT('',(9.424777960769,-5.));
#139 = ( GEOMETRIC_REPRESENTATION_CONTEXT(2) 
PARAMETRIC_REPRESENTATION_CONTEXT() REPRESENTATION_CONTEXT('2D SPACE',''
  ) );
#140 = ADVANCED_FACE('',(#141),#130,.F.);
#141 = FACE_BOUND('',#142,.F.);
#142 = EDGE_LOOP('',(#143,#165,#166,#167));
#143 = ORIENTED_EDGE('',*,*,#144,.T.);
#144 = EDGE_CURVE('',#145,#114,#147,.T.);
#145 = VERTEX_POINT('',#146);
#146 = CARTESIAN_POINT('',(5.,0.,0.));
#147 = SEAM_CURVE('',#148,(#151,#158),.PCURVE_S1.);
#148 = B_SPLINE_CURVE_WITH_KNOTS('',1,(#149,#150),.UNSPECIFIED.,.F.,.F.,
  (2,2),(-19.,-5.),.PIECEWISE_BEZIER_KNOTS.);
#149 = CARTESIAN_POINT('',(5.,-6.123233995737E-16,0.));
#150 = CARTESIAN_POINT('',(5.,-6.123233995737E-16,14.));
#151 = PCURVE('',#130,#152);
#152 = DEFINITIONAL_REPRESENTATION('',(#153),#157);
#153 = LINE('',#154,#155);
#154 = CARTESIAN_POINT('',(9.424777960769,0.));
#155 = VECTOR('',#156,1.);
#156 = DIRECTION('',(0.,1.));
#157 = ( GEOMETRIC_REPRESENTATION_CONTEXT(2) 
PARAMETRIC_REPRESENTATION_CONTEXT() REPRESENTATION_CONTEXT('2D SPACE',''
  ) );
#158 = PCURVE('',#130,#159);
#159 = DEFINITIONAL_REPRESENTATION('',(#160),#164);
#160 = LINE('',#161,#162);
#161 = CARTESIAN_POINT('',(3.14159265359,0.));
#162 = VECTOR('',#163,1.);
#163 = DIRECTION('',(0.,1.));
#164 = ( GEOMETRIC_REPRESENTATION_CONTEXT(2) 
PARAMETRIC_REPRESENTATION_CONTEXT() REPRESENTATION_CONTEXT('2D SPACE',''
  ) );
#165 = ORIENTED_EDGE('',*,*,#113,.F.);
#166 = ORIENTED_EDGE('',*,*,#144,.F.);
#167 = ORIENTED_EDGE('',*,*,#168,.F.);
#168 = EDGE_CURVE('',#145,#145,#169,.T.);
#169 = SURFACE_CURVE('',#170,(#175,#181),.PCURVE_S1.);
#170 = CIRCLE('',#171,5.);
#171 = AXIS2_PLACEMENT_3D('',#172,#173,#174);
#172 = CARTESIAN_POINT('',(0.,0.,0.));
#173 = DIRECTION('',(0.,0.,-1.));
#174 = DIRECTION('',(1.,0.,0.));
#175 = PCURVE('',#130,#176);
#176 = DEFINITIONAL_REPRESENTATION('',(#177),#180);
#177 = B_SPLINE_CURVE_WITH_KNOTS('',1,(#178,#179),.UNSPECIFIED.,.F.,.F.,
  (2,2),(0.,6.28318530718),.PIECEWISE_BEZIER_KNOTS.);
#178 = CARTESIAN_POINT('',(9.424777960769,-19.));
#179 = CARTESIAN_POINT('',(3.14159265359,-19.));
#180 = ( GEOMETRIC_REPRESENTATION_CONTEXT(2) 
PARAMETRIC_REPRESENTATION_CONTEXT() REPRESENTATION_CONTEXT('2D SPACE',''
  ) );
#181 = PCURVE('',#182,#187);
#182 = PLANE('',#183);
#183 = AXIS2_PLACEMENT_3D('',#184,#185,#186);
#184 = CARTESIAN_POINT('',(0.,0.,0.));
#185 = DIRECTION('',(0.,0.,1.));
#186 = DIRECTION('',(1.,0.,-0.));
#187 = DEFINITIONAL_REPRESENTATION('',(#188),#196);
#188 = ( BOUNDED_CURVE() B_SPLINE_CURVE(2,(#189,#190,#191,#192,#193,#194
,#195),.UNSPECIFIED.,.T.,.F.) B_SPLINE_CURVE_WITH_KNOTS((1,2,2,2,2,1),(
    -2.094395102393,0.,2.094395102393,4.188790204786,6.28318530718,
8.377580409573),.UNSPECIFIED.) CURVE() GEOMETRIC_REPRESENTATION_ITEM() 
RATIONAL_B_SPLINE_CURVE((1.,0.5,1.,0.5,1.,0.5,1.)) REPRESENTATION_ITEM(
  '') );
#189 = CARTESIAN_POINT('',(5.,0.));
#190 = CARTESIAN_POINT('',(5.,-8.660254037844));
#191 = CARTESIAN_POINT('',(-2.5,-4.330127018922));
#192 = CARTESIAN_POINT('',(-10.,-1.224646799147E-15));
#193 = CARTESIAN_POINT('',(-2.5,4.330127018922));
#194 = CARTESIAN_POINT('',(5.,8.660254037844));
#195 = CARTESIAN_POINT('',(5.,0.));
#196 = ( GEOMETRIC_REPRESENTATION_CONTEXT(2) 
PARAMETRIC_REPRESENTATION_CONTEXT() REPRESENTATION_CONTEXT('2D SPACE',''
  ) );
#197 = ADVANCED_FACE('',(#198),#211,.T.);
#198 = FACE_BOUND('',#199,.T.);
#199 = EDGE_LOOP('',(#200,#255,#277,#325));
#200 = ORIENTED_EDGE('',*,*,#201,.T.);
#201 = EDGE_CURVE('',#202,#202,#204,.T.);
#202 = VERTEX_POINT('',#203);
#203 = CARTESIAN_POINT('',(15.,0.,26.5));
#204 = SURFACE_CURVE('',#205,(#210,#221),.PCURVE_S1.);
#205 = CIRCLE('',#206,15.);
#206 = AXIS2_PLACEMENT_3D('',#207,#208,#209);
#207 = CARTESIAN_POINT('',(0.,0.,26.5));
#208 = DIRECTION('',(0.,0.,-1.));
#209 = DIRECTION('',(1.,0.,0.));
#210 = PCURVE('',#211,#216);
#211 = CYLINDRICAL_SURFACE('',#212,15.);
#212 = AXIS2_PLACEMENT_3D('',#213,#214,#215);
#213 = CARTESIAN_POINT('',(-0.,0.,28.));
#214 = DIRECTION('',(0.,0.,1.));
#215 = DIRECTION('',(-1.,0.,0.));
#216 = DEFINITIONAL_REPRESENTATION('',(#217),#220);
#217 = B_SPLINE_CURVE_WITH_KNOTS('',1,(#218,#219),.UNSPECIFIED.,.F.,.F.,
  (2,2),(0.,6.28318530718),.PIECEWISE_BEZIER_KNOTS.);
#218 = CARTESIAN_POINT('',(9.424777960769,-1.5));
#219 = CARTESIAN_POINT('',(3.14159265359,-1.5));
#220 = ( GEOMETRIC_REPRESENTATION_CONTEXT(2) 
PARAMETRIC_REPRESENTATION_CONTEXT() REPRESENTATION_CONTEXT('2D SPACE',''
  ) );
#221 = PCURVE('',#222,#227);
#222 = CONICAL_SURFACE('',#223,13.5,0.785398163397);
#223 = AXIS2_PLACEMENT_3D('',#224,#225,#226);
#224 = CARTESIAN_POINT('',(-0.,0.,28.));
#225 = DIRECTION('',(0.,0.,-1.));
#226 = DIRECTION('',(-1.,0.,0.));
#227 = DEFINITIONAL_REPRESENTATION('',(#228),#254);
#228 = B_SPLINE_CURVE_WITH_KNOTS('',3,(#229,#230,#231,#232,#233,#234,
    #235,#236,#237,#238,#239,#240,#241,#242,#243,#244,#245,#246,#247,
    #248,#249,#250,#251,#252,#253),.UNSPECIFIED.,.F.,.F.,(4,1,1,1,1,1,1,
    1,1,1,1,1,1,1,1,1,1,1,1,1,1,1,4),(0.,0.285599332145,0.571198664289,
    0.856797996434,1.142397328578,1.427996660723,1.713595992867,
    1.999195325012,2.284794657156,2.570393989301,2.855993321445,
    3.14159265359,3.427191985734,3.712791317879,3.998390650023,
    4.283989982168,4.569589314312,4.855188646457,5.140787978601,
    5.426387310746,5.711986642891,5.997585975035,6.28318530718),
  .QUASI_UNIFORM_KNOTS.);
#229 = CARTESIAN_POINT('',(3.14159265359,1.5));
#230 = CARTESIAN_POINT('',(3.236792430971,1.5));
#231 = CARTESIAN_POINT('',(3.427191985734,1.5));
#232 = CARTESIAN_POINT('',(3.712791317879,1.5));
#233 = CARTESIAN_POINT('',(3.998390650023,1.5));
#234 = CARTESIAN_POINT('',(4.283989982168,1.5));
#235 = CARTESIAN_POINT('',(4.569589314312,1.5));
#236 = CARTESIAN_POINT('',(4.855188646457,1.5));
#237 = CARTESIAN_POINT('',(5.140787978601,1.5));
#238 = CARTESIAN_POINT('',(5.426387310746,1.5));
#239 = CARTESIAN_POINT('',(5.711986642891,1.5));
#240 = CARTESIAN_POINT('',(5.997585975035,1.5));
#241 = CARTESIAN_POINT('',(6.28318530718,1.5));
#242 = CARTESIAN_POINT('',(6.568784639324,1.5));
#243 = CARTESIAN_POINT('',(6.854383971469,1.5));
#244 = CARTESIAN_POINT('',(7.139983303613,1.5));
#245 = CARTESIAN_POINT('',(7.425582635758,1.5));
#246 = CARTESIAN_POINT('',(7.711181967902,1.5));
#247 = CARTESIAN_POINT('',(7.996781300047,1.5));
#248 = CARTESIAN_POINT('',(8.282380632191,1.5));
#249 = CARTESIAN_POINT('',(8.567979964336,1.5));
#250 = CARTESIAN_POINT('',(8.85357929648,1.5));
#251 = CARTESIAN_POINT('',(9.139178628625,1.5));
#252 = CARTESIAN_POINT('',(9.329578183388,1.5));
#253 = CARTESIAN_POINT('',(9.424777960769,1.5));
#254 = ( GEOMETRIC_REPRESENTATION_CONTEXT(2) 
PARAMETRIC_REPRESENTATION_CONTEXT() REPRESENTATION_CONTEXT('2D SPACE',''
  ) );
#255 = ORIENTED_EDGE('',*,*,#256,.F.);
#256 = EDGE_CURVE('',#257,#202,#259,.T.);
#257 = VERTEX_POINT('',#258);
#258 = CARTESIAN_POINT('',(15.,0.,1.5));
#259 = SEAM_CURVE('',#260,(#263,#270),.PCURVE_S1.);
#260 = B_SPLINE_CURVE_WITH_KNOTS('',1,(#261,#262),.UNSPECIFIED.,.F.,.F.,
  (2,2),(-26.5,-1.5),.PIECEWISE_BEZIER_KNOTS.);
#261 = CARTESIAN_POINT('',(15.,-5.510910596163E-15,1.5));
#262 = CARTESIAN_POINT('',(15.,-5.510910596163E-15,26.5));
#263 = PCURVE('',#211,#264);
#264 = DEFINITIONAL_REPRESENTATION('',(#265),#269);
#265 = LINE('',#266,#267);
#266 = CARTESIAN_POINT('',(3.14159265359,0.));
#267 = VECTOR('',#268,1.);
#268 = DIRECTION('',(0.,1.));
#269 = ( GEOMETRIC_REPRESENTATION_CONTEXT(2) 
PARAMETRIC_REPRESENTATION_CONTEXT() REPRESENTATION_CONTEXT('2D SPACE',''
  ) );
#270 = PCURVE('',#211,#271);
#271 = DEFINITIONAL_REPRESENTATION('',(#272),#276);
#272 = LINE('',#273,#274);
#273 = CARTESIAN_POINT('',(9.424777960769,0.));
#274 = VECTOR('',#275,1.);
#275 = DIRECTION('',(0.,1.));
#276 = ( GEOMETRIC_REPRESENTATION_CONTEXT(2) 
PARAMETRIC_REPRESENTATION_CONTEXT() REPRESENTATION_CONTEXT('2D SPACE',''
  ) );
#277 = ORIENTED_EDGE('',*,*,#278,.T.);
#278 = EDGE_CURVE('',#257,#257,#279,.T.);
#279 = SURFACE_CURVE('',#280,(#285,#291),.PCURVE_S1.);
#280 = CIRCLE('',#281,15.);
#281 = AXIS2_PLACEMENT_3D('',#282,#283,#284);
#282 = CARTESIAN_POINT('',(0.,0.,1.5));
#283 = DIRECTION('',(0.,0.,1.));
#284 = DIRECTION('',(1.,0.,-0.));
#285 = PCURVE('',#211,#286);
#286 = DEFINITIONAL_REPRESENTATION('',(#287),#290);
#287 = B_SPLINE_CURVE_WITH_KNOTS('',1,(#288,#289),.UNSPECIFIED.,.F.,.F.,
  (2,2),(0.,6.28318530718),.PIECEWISE_BEZIER_KNOTS.);
#288 = CARTESIAN_POINT('',(3.14159265359,-26.5));
#289 = CARTESIAN_POINT('',(9.424777960769,-26.5));
#290 = ( GEOMETRIC_REPRESENTATION_CONTEXT(2) 
PARAMETRIC_REPRESENTATION_CONTEXT() REPRESENTATION_CONTEXT('2D SPACE',''
  ) );
#291 = PCURVE('',#292,#297);
#292 = CONICAL_SURFACE('',#293,15.,0.785398163397);
#293 = AXIS2_PLACEMENT_3D('',#294,#295,#296);
#294 = CARTESIAN_POINT('',(-0.,0.,1.5));
#295 = DIRECTION('',(0.,0.,1.));
#296 = DIRECTION('',(1.,0.,-0.));
#297 = DEFINITIONAL_REPRESENTATION('',(#298),#324);
#298 = B_SPLINE_CURVE_WITH_KNOTS('',3,(#299,#300,#301,#302,#303,#304,
    #305,#306,#307,#308,#309,#310,#311,#312,#313,#314,#315,#316,#317,
    #318,#319,#320,#321,#322,#323),.UNSPECIFIED.,.F.,.F.,(4,1,1,1,1,1,1,
    1,1,1,1,1,1,1,1,1,1,1,1,1,1,1,4),(0.,0.285599332145,0.571198664289,
    0.856797996434,1.142397328578,1.427996660723,1.713595992867,
    1.999195325012,2.284794657156,2.570393989301,2.855993321445,
    3.14159265359,3.427191985734,3.712791317879,3.998390650023,
    4.283989982168,4.569589314312,4.855188646457,5.140787978601,
    5.426387310746,5.711986642891,5.997585975035,6.28318530718),
  .QUASI_UNIFORM_KNOTS.);
#299 = CARTESIAN_POINT('',(0.,0.));
#300 = CARTESIAN_POINT('',(9.519977738151E-02,0.));
#301 = CARTESIAN_POINT('',(0.285599332145,-1.094018323684E-17));
#302 = CARTESIAN_POINT('',(0.571198664289,3.829064132895E-17));
#303 = CARTESIAN_POINT('',(0.856797996434,-1.42222382079E-16));
#304 = CARTESIAN_POINT('',(1.142397328578,5.305988869869E-16));
#305 = CARTESIAN_POINT('',(1.427996660723,-1.980173165869E-15));
#306 = CARTESIAN_POINT('',(1.713595992867,2.061023258287E-15));
#307 = CARTESIAN_POINT('',(1.999195325012,-9.348493490778E-16));
#308 = CARTESIAN_POINT('',(2.284794657156,1.678374138024E-15));
#309 = CARTESIAN_POINT('',(2.570393989301,-4.495766848186E-16));
#310 = CARTESIAN_POINT('',(2.855993321445,1.1993260125E-16));
#311 = CARTESIAN_POINT('',(3.14159265359,-3.015372018136E-17));
#312 = CARTESIAN_POINT('',(3.427191985734,6.822794754481E-19));
#313 = CARTESIAN_POINT('',(3.712791317879,2.742460227956E-17));
#314 = CARTESIAN_POINT('',(3.998390650023,-1.103806885937E-16));
#315 = CARTESIAN_POINT('',(4.283989982168,4.140981520953E-16));
#316 = CARTESIAN_POINT('',(4.569589314312,-1.546011919787E-15));
#317 = CARTESIAN_POINT('',(4.855188646457,4.408790088533E-16));
#318 = CARTESIAN_POINT('',(5.140787978601,-2.17504115626E-16));
#319 = CARTESIAN_POINT('',(5.426387310746,4.291374536509E-16));
#320 = CARTESIAN_POINT('',(5.711986642891,-1.499045698977E-15));
#321 = CARTESIAN_POINT('',(5.997585975035,2.379748240578E-16));
#322 = CARTESIAN_POINT('',(6.187985529798,4.440892098501E-16));
#323 = CARTESIAN_POINT('',(6.28318530718,0.));
#324 = ( GEOMETRIC_REPRESENTATION_CONTEXT(2) 
PARAMETRIC_REPRESENTATION_CONTEXT() REPRESENTATION_CONTEXT('2D SPACE',''
  ) );
#325 = ORIENTED_EDGE('',*,*,#256,.T.);
#326 = ADVANCED_FACE('',(#327,#375),#64,.T.);
#327 = FACE_BOUND('',#328,.T.);
#328 = EDGE_LOOP('',(#329));
#329 = ORIENTED_EDGE('',*,*,#330,.T.);
#330 = EDGE_CURVE('',#331,#331,#333,.T.);
#331 = VERTEX_POINT('',#332);
#332 = CARTESIAN_POINT('',(13.5,0.,28.));
#333 = SURFACE_CURVE('',#334,(#339,#346),.PCURVE_S1.);
#334 = CIRCLE('',#335,13.5);
#335 = AXIS2_PLACEMENT_3D('',#336,#337,#338);
#336 = CARTESIAN_POINT('',(0.,0.,28.));
#337 = DIRECTION('',(0.,0.,1.));
#338 = DIRECTION('',(1.,0.,-0.));
#339 = PCURVE('',#64,#340);
#340 = DEFINITIONAL_REPRESENTATION('',(#341),#345);
#341 = CIRCLE('',#342,13.5);
#342 = AXIS2_PLACEMENT_2D('',#343,#344);
#343 = CARTESIAN_POINT('',(0.,0.));
#344 = DIRECTION('',(1.,0.));
#345 = ( GEOMETRIC_REPRESENTATION_CONTEXT(2) 
PARAMETRIC_REPRESENTATION_CONTEXT() REPRESENTATION_CONTEXT('2D SPACE',''
  ) );
#346 = PCURVE('',#222,#347);
#347 = DEFINITIONAL_REPRESENTATION('',(#348),#374);
#348 = B_SPLINE_CURVE_WITH_KNOTS('',3,(#349,#350,#351,#352,#353,#354,
    #355,#356,#357,#358,#359,#360,#361,#362,#363,#364,#365,#366,#367,
    #368,#369,#370,#371,#372,#373),.UNSPECIFIED.,.F.,.F.,(4,1,1,1,1,1,1,
    1,1,1,1,1,1,1,1,1,1,1,1,1,1,1,4),(0.,0.285599332145,0.571198664289,
    0.856797996434,1.142397328578,1.427996660723,1.713595992867,
    1.999195325012,2.284794657156,2.570393989301,2.855993321445,
    3.14159265359,3.427191985734,3.712791317879,3.998390650023,
    4.283989982168,4.569589314312,4.855188646457,5.140787978601,
    5.426387310746,5.711986642891,5.997585975035,6.28318530718),
  .QUASI_UNIFORM_KNOTS.);
#349 = CARTESIAN_POINT('',(9.424777960769,0.));
#350 = CARTESIAN_POINT('',(9.329578183388,-1.33226762955E-15));
#351 = CARTESIAN_POINT('',(9.139178628625,-1.478522791605E-15));
#352 = CARTESIAN_POINT('',(8.85357929648,1.844160696742E-15));
#353 = CARTESIAN_POINT('',(8.567979964336,-5.690494771624E-16));
#354 = CARTESIAN_POINT('',(8.282380632191,4.320372119075E-16));
#355 = CARTESIAN_POINT('',(7.996781300047,-1.159099370467E-15));
#356 = CARTESIAN_POINT('',(7.711181967902,-1.124710248238E-15));
#357 = CARTESIAN_POINT('',(7.425582635758,3.2886984522E-16));
#358 = CARTESIAN_POINT('',(7.139983303613,-1.907691326416E-16));
#359 = CARTESIAN_POINT('',(6.854383971469,4.342066853464E-16));
#360 = CARTESIAN_POINT('',(6.568784639324,-1.546057608744E-15));
#361 = CARTESIAN_POINT('',(6.28318530718,4.209532314282E-16));
#362 = CARTESIAN_POINT('',(5.997585975035,-1.377553169691E-16));
#363 = CARTESIAN_POINT('',(5.711986642891,1.300680364482E-16));
#364 = CARTESIAN_POINT('',(5.426387310746,-3.825168288238E-16));
#365 = CARTESIAN_POINT('',(5.140787978601,1.399999278847E-15));
#366 = CARTESIAN_POINT('',(4.855188646457,1.115902316361E-16));
#367 = CARTESIAN_POINT('',(4.569589314312,-1.846360205391E-15));
#368 = CARTESIAN_POINT('',(4.283989982168,1.944780071729E-15));
#369 = CARTESIAN_POINT('',(3.998390650023,-6.036895633221E-16));
#370 = CARTESIAN_POINT('',(3.712791317879,4.699781815598E-16));
#371 = CARTESIAN_POINT('',(3.427191985734,-1.276223162917E-15));
#372 = CARTESIAN_POINT('',(3.236792430971,-8.881784197001E-16));
#373 = CARTESIAN_POINT('',(3.14159265359,0.));
#374 = ( GEOMETRIC_REPRESENTATION_CONTEXT(2) 
PARAMETRIC_REPRESENTATION_CONTEXT() REPRESENTATION_CONTEXT('2D SPACE',''
  ) );
#375 = FACE_BOUND('',#376,.T.);
#376 = EDGE_LOOP('',(#377));
#377 = ORIENTED_EDGE('',*,*,#50,.T.);
#378 = ADVANCED_FACE('',(#379),#292,.T.);
#379 = FACE_BOUND('',#380,.T.);
#380 = EDGE_LOOP('',(#381,#382,#404,#452));
#381 = ORIENTED_EDGE('',*,*,#278,.F.);
#382 = ORIENTED_EDGE('',*,*,#383,.F.);
#383 = EDGE_CURVE('',#384,#257,#386,.T.);
#384 = VERTEX_POINT('',#385);
#385 = CARTESIAN_POINT('',(13.5,0.,0.));
#386 = SEAM_CURVE('',#387,(#390,#397),.PCURVE_S1.);
#387 = B_SPLINE_CURVE_WITH_KNOTS('',1,(#388,#389),.UNSPECIFIED.,.F.,.F.,
  (2,2),(-2.12132034356,0.),.PIECEWISE_BEZIER_KNOTS.);
#388 = CARTESIAN_POINT('',(13.5,-3.306546357698E-15,-2.22044604925E-16)
  );
#389 = CARTESIAN_POINT('',(15.,-3.673940397442E-15,1.5));
#390 = PCURVE('',#292,#391);
#391 = DEFINITIONAL_REPRESENTATION('',(#392),#396);
#392 = LINE('',#393,#394);
#393 = CARTESIAN_POINT('',(0.,0.));
#394 = VECTOR('',#395,1.);
#395 = DIRECTION('',(0.,1.));
#396 = ( GEOMETRIC_REPRESENTATION_CONTEXT(2) 
PARAMETRIC_REPRESENTATION_CONTEXT() REPRESENTATION_CONTEXT('2D SPACE',''
  ) );
#397 = PCURVE('',#292,#398);
#398 = DEFINITIONAL_REPRESENTATION('',(#399),#403);
#399 = LINE('',#400,#401);
#400 = CARTESIAN_POINT('',(6.28318530718,0.));
#401 = VECTOR('',#402,1.);
#402 = DIRECTION('',(0.,1.));
#403 = ( GEOMETRIC_REPRESENTATION_CONTEXT(2) 
PARAMETRIC_REPRESENTATION_CONTEXT() REPRESENTATION_CONTEXT('2D SPACE',''
  ) );
#404 = ORIENTED_EDGE('',*,*,#405,.F.);
#405 = EDGE_CURVE('',#384,#384,#406,.T.);
#406 = SURFACE_CURVE('',#407,(#412,#441),.PCURVE_S1.);
#407 = CIRCLE('',#408,13.5);
#408 = AXIS2_PLACEMENT_3D('',#409,#410,#411);
#409 = CARTESIAN_POINT('',(0.,0.,0.));
#410 = DIRECTION('',(0.,0.,-1.));
#411 = DIRECTION('',(1.,0.,0.));
#412 = PCURVE('',#292,#413);
#413 = DEFINITIONAL_REPRESENTATION('',(#414),#440);
#414 = B_SPLINE_CURVE_WITH_KNOTS('',3,(#415,#416,#417,#418,#419,#420,
    #421,#422,#423,#424,#425,#426,#427,#428,#429,#430,#431,#432,#433,
    #434,#435,#436,#437,#438,#439),.UNSPECIFIED.,.F.,.F.,(4,1,1,1,1,1,1,
    1,1,1,1,1,1,1,1,1,1,1,1,1,1,1,4),(0.,0.285599332145,0.571198664289,
    0.856797996434,1.142397328578,1.427996660723,1.713595992867,
    1.999195325012,2.284794657156,2.570393989301,2.855993321445,
    3.14159265359,3.427191985734,3.712791317879,3.998390650023,
    4.283989982168,4.569589314312,4.855188646457,5.140787978601,
    5.426387310746,5.711986642891,5.997585975035,6.28318530718),
  .QUASI_UNIFORM_KNOTS.);
#415 = CARTESIAN_POINT('',(6.28318530718,-1.5));
#416 = CARTESIAN_POINT('',(6.187985529798,-1.5));
#417 = CARTESIAN_POINT('',(5.997585975035,-1.5));
#418 = CARTESIAN_POINT('',(5.711986642891,-1.5));
#419 = CARTESIAN_POINT('',(5.426387310746,-1.5));
#420 = CARTESIAN_POINT('',(5.140787978601,-1.5));
#421 = CARTESIAN_POINT('',(4.855188646457,-1.5));
#422 = CARTESIAN_POINT('',(4.569589314312,-1.5));
#423 = CARTESIAN_POINT('',(4.283989982168,-1.5));
#424 = CARTESIAN_POINT('',(3.998390650023,-1.5));
#425 = CARTESIAN_POINT('',(3.712791317879,-1.5));
#426 = CARTESIAN_POINT('',(3.427191985734,-1.5));
#427 = CARTESIAN_POINT('',(3.14159265359,-1.5));
#428 = CARTESIAN_POINT('',(2.855993321445,-1.5));
#429 = CARTESIAN_POINT('',(2.570393989301,-1.5));
#430 = CARTESIAN_POINT('',(2.284794657156,-1.5));
#431 = CARTESIAN_POINT('',(1.999195325012,-1.5));
#432 = CARTESIAN_POINT('',(1.713595992867,-1.5));
#433 = CARTESIAN_POINT('',(1.427996660723,-1.5));
#434 = CARTESIAN_POINT('',(1.142397328578,-1.5));
#435 = CARTESIAN_POINT('',(0.856797996434,-1.5));
#436 = CARTESIAN_POINT('',(0.571198664289,-1.5));
#437 = CARTESIAN_POINT('',(0.285599332145,-1.5));
#438 = CARTESIAN_POINT('',(9.519977738151E-02,-1.5));
#439 = CARTESIAN_POINT('',(0.,-1.5));
#440 = ( GEOMETRIC_REPRESENTATION_CONTEXT(2) 
PARAMETRIC_REPRESENTATION_CONTEXT() REPRESENTATION_CONTEXT('2D SPACE',''
  ) );
#441 = PCURVE('',#182,#442);
#442 = DEFINITIONAL_REPRESENTATION('',(#443),#451);
#443 = ( BOUNDED_CURVE() B_SPLINE_CURVE(2,(#444,#445,#446,#447,#448,#449
,#450),.UNSPECIFIED.,.T.,.F.) B_SPLINE_CURVE_WITH_KNOTS((1,2,2,2,2,1),(
    -2.094395102393,0.,2.094395102393,4.188790204786,6.28318530718,
8.377580409573),.UNSPECIFIED.) CURVE() GEOMETRIC_REPRESENTATION_ITEM() 
RATIONAL_B_SPLINE_CURVE((1.,0.5,1.,0.5,1.,0.5,1.)) REPRESENTATION_ITEM(
  '') );
#444 = CARTESIAN_POINT('',(13.5,0.));
#445 = CARTESIAN_POINT('',(13.5,-23.38268590218));
#446 = CARTESIAN_POINT('',(-6.75,-11.69134295109));
#447 = CARTESIAN_POINT('',(-27.,-3.306546357698E-15));
#448 = CARTESIAN_POINT('',(-6.75,11.69134295109));
#449 = CARTESIAN_POINT('',(13.5,23.38268590218));
#450 = CARTESIAN_POINT('',(13.5,0.));
#451 = ( GEOMETRIC_REPRESENTATION_CONTEXT(2) 
PARAMETRIC_REPRESENTATION_CONTEXT() REPRESENTATION_CONTEXT('2D SPACE',''
  ) );
#452 = ORIENTED_EDGE('',*,*,#383,.T.);
#453 = ADVANCED_FACE('',(#454),#222,.T.);
#454 = FACE_BOUND('',#455,.T.);
#455 = EDGE_LOOP('',(#456,#457,#477,#478));
#456 = ORIENTED_EDGE('',*,*,#201,.F.);
#457 = ORIENTED_EDGE('',*,*,#458,.F.);
#458 = EDGE_CURVE('',#331,#202,#459,.T.);
#459 = SEAM_CURVE('',#460,(#463,#470),.PCURVE_S1.);
#460 = B_SPLINE_CURVE_WITH_KNOTS('',1,(#461,#462),.UNSPECIFIED.,.F.,.F.,
  (2,2),(-5.916456789158E-31,2.12132034356),.PIECEWISE_BEZIER_KNOTS.);
#461 = CARTESIAN_POINT('',(13.5,4.959819536547E-15,28.));
#462 = CARTESIAN_POINT('',(15.,5.510910596163E-15,26.5));
#463 = PCURVE('',#222,#464);
#464 = DEFINITIONAL_REPRESENTATION('',(#465),#469);
#465 = LINE('',#466,#467);
#466 = CARTESIAN_POINT('',(3.14159265359,0.));
#467 = VECTOR('',#468,1.);
#468 = DIRECTION('',(0.,1.));
#469 = ( GEOMETRIC_REPRESENTATION_CONTEXT(2) 
PARAMETRIC_REPRESENTATION_CONTEXT() REPRESENTATION_CONTEXT('2D SPACE',''
  ) );
#470 = PCURVE('',#222,#471);
#471 = DEFINITIONAL_REPRESENTATION('',(#472),#476);
#472 = LINE('',#473,#474);
#473 = CARTESIAN_POINT('',(9.424777960769,0.));
#474 = VECTOR('',#475,1.);
#475 = DIRECTION('',(0.,1.));
#476 = ( GEOMETRIC_REPRESENTATION_CONTEXT(2) 
PARAMETRIC_REPRESENTATION_CONTEXT() REPRESENTATION_CONTEXT('2D SPACE',''
  ) );
#477 = ORIENTED_EDGE('',*,*,#330,.F.);
#478 = ORIENTED_EDGE('',*,*,#458,.T.);
#479 = ADVANCED_FACE('',(#480,#483),#182,.F.);
#480 = FACE_BOUND('',#481,.F.);
#481 = EDGE_LOOP('',(#482));
#482 = ORIENTED_EDGE('',*,*,#405,.F.);
#483 = FACE_BOUND('',#484,.F.);
#484 = EDGE_LOOP('',(#485));
#485 = ORIENTED_EDGE('',*,*,#168,.T.);
#486 = ( GEOMETRIC_REPRESENTATION_CONTEXT(3) 
GLOBAL_UNCERTAINTY_ASSIGNED_CONTEXT((#490)) GLOBAL_UNIT_ASSIGNED_CONTEXT
((#487,#488,#489)) REPRESENTATION_CONTEXT('Context #1',
  '3D Context with UNIT and UNCERTAINTY') );
#487 = ( LENGTH_UNIT() NAMED_UNIT(*) SI_UNIT(.MILLI.,.METRE.) );
#488 = ( NAMED_UNIT(*) PLANE_ANGLE_UNIT() SI_UNIT($,.RADIAN.) );
#489 = ( NAMED_UNIT(*) SI_UNIT($,.STERADIAN.) SOLID_ANGLE_UNIT() );
#490 = UNCERTAINTY_MEASURE_WITH_UNIT(LENGTH_MEASURE(1.E-05),#487,
  'distance_accuracy_value','confusion accuracy');
#491 = PRODUCT_TYPE('part',$,(#7));
ENDSEC;
END-ISO-10303-21;
