ISO-10303-21;
HEADER;
/* Generated by software containing ST-Developer
 * from STEP Tools, Inc. (www.steptools.com) 
 */

FILE_DESCRIPTION(
/* description */ (''),
/* implementation_level */ '2;1');

FILE_NAME(
/* name */ 'C:/Users/Augustin Chauveau/Desktop/rotule frais\X\E9e.step',

/* time_stamp */ '2021-12-22T20:56:51+01:00',
/* author */ (''),
/* organization */ (''),
/* preprocessor_version */ 'ST-DEVELOPER v18.1',
/* originating_system */ 'Autodesk Translation Framework v10.10.0.1391',

/* authorisation */ '');

FILE_SCHEMA (('AUTOMOTIVE_DESIGN { 1 0 10303 214 3 1 1 }'));
ENDSEC;

DATA;
#10=MECHANICAL_DESIGN_GEOMETRIC_PRESENTATION_REPRESENTATION('',(#13),#503);
#11=SHAPE_REPRESENTATION_RELATIONSHIP('SRR','None',#510,#12);
#12=ADVANCED_BREP_SHAPE_REPRESENTATION('',(#14),#502);
#13=STYLED_ITEM('',(#519),#14);
#14=MANIFOLD_SOLID_BREP('Corps1',#259);
#15=FACE_BOUND('',#54,.T.);
#16=FACE_BOUND('',#57,.T.);
#17=FACE_BOUND('',#61,.T.);
#18=FACE_BOUND('',#69,.T.);
#19=PLANE('',#281);
#20=PLANE('',#286);
#21=PLANE('',#296);
#22=PLANE('',#317);
#23=LINE('',#436,#27);
#24=LINE('',#458,#28);
#25=LINE('',#475,#29);
#26=LINE('',#487,#30);
#27=VECTOR('',#337,20.2);
#28=VECTOR('',#366,7.40000000000002);
#29=VECTOR('',#389,5.10000000000002);
#30=VECTOR('',#404,22.5);
#31=CYLINDRICAL_SURFACE('',#278,20.2);
#32=CYLINDRICAL_SURFACE('',#293,7.40000000000002);
#33=CYLINDRICAL_SURFACE('',#304,5.10000000000002);
#34=CYLINDRICAL_SURFACE('',#311,22.5);
#35=FACE_OUTER_BOUND('',#51,.T.);
#36=FACE_OUTER_BOUND('',#52,.T.);
#37=FACE_OUTER_BOUND('',#53,.T.);
#38=FACE_OUTER_BOUND('',#55,.T.);
#39=FACE_OUTER_BOUND('',#56,.T.);
#40=FACE_OUTER_BOUND('',#58,.T.);
#41=FACE_OUTER_BOUND('',#59,.T.);
#42=FACE_OUTER_BOUND('',#60,.T.);
#43=FACE_OUTER_BOUND('',#62,.T.);
#44=FACE_OUTER_BOUND('',#63,.T.);
#45=FACE_OUTER_BOUND('',#64,.T.);
#46=FACE_OUTER_BOUND('',#65,.T.);
#47=FACE_OUTER_BOUND('',#66,.T.);
#48=FACE_OUTER_BOUND('',#67,.T.);
#49=FACE_OUTER_BOUND('',#68,.T.);
#50=FACE_OUTER_BOUND('',#70,.T.);
#51=EDGE_LOOP('',(#163,#164,#165,#166,#167));
#52=EDGE_LOOP('',(#168,#169,#170,#171,#172,#173));
#53=EDGE_LOOP('',(#174));
#54=EDGE_LOOP('',(#175));
#55=EDGE_LOOP('',(#176,#177,#178,#179,#180));
#56=EDGE_LOOP('',(#181));
#57=EDGE_LOOP('',(#182));
#58=EDGE_LOOP('',(#183,#184,#185,#186,#187));
#59=EDGE_LOOP('',(#188,#189,#190,#191,#192,#193));
#60=EDGE_LOOP('',(#194));
#61=EDGE_LOOP('',(#195));
#62=EDGE_LOOP('',(#196,#197,#198,#199,#200));
#63=EDGE_LOOP('',(#201,#202,#203,#204,#205));
#64=EDGE_LOOP('',(#206,#207,#208,#209,#210,#211));
#65=EDGE_LOOP('',(#212,#213,#214,#215,#216));
#66=EDGE_LOOP('',(#217,#218,#219,#220,#221,#222));
#67=EDGE_LOOP('',(#223,#224,#225,#226,#227));
#68=EDGE_LOOP('',(#228));
#69=EDGE_LOOP('',(#229));
#70=EDGE_LOOP('',(#230,#231,#232,#233,#234));
#71=CIRCLE('',#274,20.1);
#72=CIRCLE('',#275,0.1);
#73=CIRCLE('',#276,20.2);
#74=CIRCLE('',#277,20.2);
#75=CIRCLE('',#279,20.2);
#76=CIRCLE('',#280,20.2);
#77=CIRCLE('',#282,7.50000000000002);
#78=CIRCLE('',#284,20.3);
#79=CIRCLE('',#285,0.1);
#80=CIRCLE('',#287,22.2);
#81=CIRCLE('',#289,7.30000000000002);
#82=CIRCLE('',#290,0.1);
#83=CIRCLE('',#291,7.40000000000002);
#84=CIRCLE('',#292,7.40000000000002);
#85=CIRCLE('',#294,7.40000000000002);
#86=CIRCLE('',#295,7.40000000000002);
#87=CIRCLE('',#297,5.40000000000002);
#88=CIRCLE('',#299,0.1);
#89=CIRCLE('',#301,0.3);
#90=CIRCLE('',#302,5.10000000000002);
#91=CIRCLE('',#303,5.10000000000002);
#92=CIRCLE('',#305,5.10000000000002);
#93=CIRCLE('',#306,5.10000000000002);
#94=CIRCLE('',#308,0.3);
#95=CIRCLE('',#309,22.5);
#96=CIRCLE('',#310,22.5);
#97=CIRCLE('',#312,22.5);
#98=CIRCLE('',#313,22.5);
#99=CIRCLE('',#315,0.3);
#100=CIRCLE('',#316,5.40000000000002);
#101=CIRCLE('',#318,19.);
#102=CIRCLE('',#320,3.5);
#103=VERTEX_POINT('',#425);
#104=VERTEX_POINT('',#427);
#105=VERTEX_POINT('',#429);
#106=VERTEX_POINT('',#433);
#107=VERTEX_POINT('',#434);
#108=VERTEX_POINT('',#439);
#109=VERTEX_POINT('',#442);
#110=VERTEX_POINT('',#446);
#111=VERTEX_POINT('',#449);
#112=VERTEX_POINT('',#451);
#113=VERTEX_POINT('',#453);
#114=VERTEX_POINT('',#457);
#115=VERTEX_POINT('',#459);
#116=VERTEX_POINT('',#463);
#117=VERTEX_POINT('',#468);
#118=VERTEX_POINT('',#470);
#119=VERTEX_POINT('',#474);
#120=VERTEX_POINT('',#476);
#121=VERTEX_POINT('',#480);
#122=VERTEX_POINT('',#482);
#123=VERTEX_POINT('',#486);
#124=VERTEX_POINT('',#488);
#125=VERTEX_POINT('',#492);
#126=VERTEX_POINT('',#496);
#127=EDGE_CURVE('',#103,#103,#71,.T.);
#128=EDGE_CURVE('',#103,#104,#72,.T.);
#129=EDGE_CURVE('',#104,#105,#73,.T.);
#130=EDGE_CURVE('',#105,#104,#74,.T.);
#131=EDGE_CURVE('',#106,#107,#75,.T.);
#132=EDGE_CURVE('',#106,#105,#23,.T.);
#133=EDGE_CURVE('',#107,#106,#76,.T.);
#134=EDGE_CURVE('',#108,#108,#77,.T.);
#135=EDGE_CURVE('',#109,#109,#78,.T.);
#136=EDGE_CURVE('',#109,#107,#79,.T.);
#137=EDGE_CURVE('',#110,#110,#80,.T.);
#138=EDGE_CURVE('',#111,#111,#81,.T.);
#139=EDGE_CURVE('',#111,#112,#82,.T.);
#140=EDGE_CURVE('',#112,#113,#83,.T.);
#141=EDGE_CURVE('',#113,#112,#84,.T.);
#142=EDGE_CURVE('',#113,#114,#24,.T.);
#143=EDGE_CURVE('',#115,#114,#85,.T.);
#144=EDGE_CURVE('',#114,#115,#86,.T.);
#145=EDGE_CURVE('',#116,#116,#87,.T.);
#146=EDGE_CURVE('',#108,#115,#88,.T.);
#147=EDGE_CURVE('',#116,#117,#89,.T.);
#148=EDGE_CURVE('',#117,#118,#90,.T.);
#149=EDGE_CURVE('',#118,#117,#91,.T.);
#150=EDGE_CURVE('',#118,#119,#25,.T.);
#151=EDGE_CURVE('',#120,#119,#92,.T.);
#152=EDGE_CURVE('',#119,#120,#93,.T.);
#153=EDGE_CURVE('',#110,#121,#94,.T.);
#154=EDGE_CURVE('',#121,#122,#95,.T.);
#155=EDGE_CURVE('',#122,#121,#96,.T.);
#156=EDGE_CURVE('',#122,#123,#26,.T.);
#157=EDGE_CURVE('',#124,#123,#97,.T.);
#158=EDGE_CURVE('',#123,#124,#98,.T.);
#159=EDGE_CURVE('',#120,#125,#99,.T.);
#160=EDGE_CURVE('',#125,#125,#100,.T.);
#161=EDGE_CURVE('',#126,#126,#101,.T.);
#162=EDGE_CURVE('',#124,#126,#102,.T.);
#163=ORIENTED_EDGE('',*,*,#127,.T.);
#164=ORIENTED_EDGE('',*,*,#128,.T.);
#165=ORIENTED_EDGE('',*,*,#129,.T.);
#166=ORIENTED_EDGE('',*,*,#130,.T.);
#167=ORIENTED_EDGE('',*,*,#128,.F.);
#168=ORIENTED_EDGE('',*,*,#131,.F.);
#169=ORIENTED_EDGE('',*,*,#132,.T.);
#170=ORIENTED_EDGE('',*,*,#129,.F.);
#171=ORIENTED_EDGE('',*,*,#130,.F.);
#172=ORIENTED_EDGE('',*,*,#132,.F.);
#173=ORIENTED_EDGE('',*,*,#133,.F.);
#174=ORIENTED_EDGE('',*,*,#127,.F.);
#175=ORIENTED_EDGE('',*,*,#134,.F.);
#176=ORIENTED_EDGE('',*,*,#135,.T.);
#177=ORIENTED_EDGE('',*,*,#136,.T.);
#178=ORIENTED_EDGE('',*,*,#133,.T.);
#179=ORIENTED_EDGE('',*,*,#131,.T.);
#180=ORIENTED_EDGE('',*,*,#136,.F.);
#181=ORIENTED_EDGE('',*,*,#137,.F.);
#182=ORIENTED_EDGE('',*,*,#135,.F.);
#183=ORIENTED_EDGE('',*,*,#138,.T.);
#184=ORIENTED_EDGE('',*,*,#139,.T.);
#185=ORIENTED_EDGE('',*,*,#140,.T.);
#186=ORIENTED_EDGE('',*,*,#141,.T.);
#187=ORIENTED_EDGE('',*,*,#139,.F.);
#188=ORIENTED_EDGE('',*,*,#141,.F.);
#189=ORIENTED_EDGE('',*,*,#142,.T.);
#190=ORIENTED_EDGE('',*,*,#143,.F.);
#191=ORIENTED_EDGE('',*,*,#144,.F.);
#192=ORIENTED_EDGE('',*,*,#142,.F.);
#193=ORIENTED_EDGE('',*,*,#140,.F.);
#194=ORIENTED_EDGE('',*,*,#138,.F.);
#195=ORIENTED_EDGE('',*,*,#145,.F.);
#196=ORIENTED_EDGE('',*,*,#134,.T.);
#197=ORIENTED_EDGE('',*,*,#146,.T.);
#198=ORIENTED_EDGE('',*,*,#143,.T.);
#199=ORIENTED_EDGE('',*,*,#144,.T.);
#200=ORIENTED_EDGE('',*,*,#146,.F.);
#201=ORIENTED_EDGE('',*,*,#145,.T.);
#202=ORIENTED_EDGE('',*,*,#147,.T.);
#203=ORIENTED_EDGE('',*,*,#148,.T.);
#204=ORIENTED_EDGE('',*,*,#149,.T.);
#205=ORIENTED_EDGE('',*,*,#147,.F.);
#206=ORIENTED_EDGE('',*,*,#149,.F.);
#207=ORIENTED_EDGE('',*,*,#150,.T.);
#208=ORIENTED_EDGE('',*,*,#151,.F.);
#209=ORIENTED_EDGE('',*,*,#152,.F.);
#210=ORIENTED_EDGE('',*,*,#150,.F.);
#211=ORIENTED_EDGE('',*,*,#148,.F.);
#212=ORIENTED_EDGE('',*,*,#137,.T.);
#213=ORIENTED_EDGE('',*,*,#153,.T.);
#214=ORIENTED_EDGE('',*,*,#154,.T.);
#215=ORIENTED_EDGE('',*,*,#155,.T.);
#216=ORIENTED_EDGE('',*,*,#153,.F.);
#217=ORIENTED_EDGE('',*,*,#155,.F.);
#218=ORIENTED_EDGE('',*,*,#156,.T.);
#219=ORIENTED_EDGE('',*,*,#157,.F.);
#220=ORIENTED_EDGE('',*,*,#158,.F.);
#221=ORIENTED_EDGE('',*,*,#156,.F.);
#222=ORIENTED_EDGE('',*,*,#154,.F.);
#223=ORIENTED_EDGE('',*,*,#152,.T.);
#224=ORIENTED_EDGE('',*,*,#159,.T.);
#225=ORIENTED_EDGE('',*,*,#160,.T.);
#226=ORIENTED_EDGE('',*,*,#159,.F.);
#227=ORIENTED_EDGE('',*,*,#151,.T.);
#228=ORIENTED_EDGE('',*,*,#161,.F.);
#229=ORIENTED_EDGE('',*,*,#160,.F.);
#230=ORIENTED_EDGE('',*,*,#158,.T.);
#231=ORIENTED_EDGE('',*,*,#162,.T.);
#232=ORIENTED_EDGE('',*,*,#161,.T.);
#233=ORIENTED_EDGE('',*,*,#162,.F.);
#234=ORIENTED_EDGE('',*,*,#157,.T.);
#235=TOROIDAL_SURFACE('',#273,20.1,0.1);
#236=TOROIDAL_SURFACE('',#283,20.3,0.1);
#237=TOROIDAL_SURFACE('',#288,7.30000000000002,0.1);
#238=TOROIDAL_SURFACE('',#298,7.50000000000002,0.1);
#239=TOROIDAL_SURFACE('',#300,5.40000000000002,0.3);
#240=TOROIDAL_SURFACE('',#307,22.2,0.3);
#241=TOROIDAL_SURFACE('',#314,5.40000000000002,0.3);
#242=TOROIDAL_SURFACE('',#319,19.,3.5);
#243=ADVANCED_FACE('',(#35),#235,.F.);
#244=ADVANCED_FACE('',(#36),#31,.F.);
#245=ADVANCED_FACE('',(#37,#15),#19,.T.);
#246=ADVANCED_FACE('',(#38),#236,.T.);
#247=ADVANCED_FACE('',(#39,#16),#20,.T.);
#248=ADVANCED_FACE('',(#40),#237,.T.);
#249=ADVANCED_FACE('',(#41),#32,.T.);
#250=ADVANCED_FACE('',(#42,#17),#21,.T.);
#251=ADVANCED_FACE('',(#43),#238,.F.);
#252=ADVANCED_FACE('',(#44),#239,.T.);
#253=ADVANCED_FACE('',(#45),#33,.F.);
#254=ADVANCED_FACE('',(#46),#240,.T.);
#255=ADVANCED_FACE('',(#47),#34,.T.);
#256=ADVANCED_FACE('',(#48),#241,.T.);
#257=ADVANCED_FACE('',(#49,#18),#22,.F.);
#258=ADVANCED_FACE('',(#50),#242,.T.);
#259=CLOSED_SHELL('',(#243,#244,#245,#246,#247,#248,#249,#250,#251,#252,
#253,#254,#255,#256,#257,#258));
#260=DERIVED_UNIT_ELEMENT(#262,1.);
#261=DERIVED_UNIT_ELEMENT(#505,-3.);
#262=(
MASS_UNIT()
NAMED_UNIT(*)
SI_UNIT(.KILO.,.GRAM.)
);
#263=DERIVED_UNIT((#260,#261));
#264=MEASURE_REPRESENTATION_ITEM('density measure',
POSITIVE_RATIO_MEASURE(7850.),#263);
#265=PROPERTY_DEFINITION_REPRESENTATION(#270,#267);
#266=PROPERTY_DEFINITION_REPRESENTATION(#271,#268);
#267=REPRESENTATION('material name',(#269),#502);
#268=REPRESENTATION('density',(#264),#502);
#269=DESCRIPTIVE_REPRESENTATION_ITEM('Acier','Acier');
#270=PROPERTY_DEFINITION('material property','material name',#512);
#271=PROPERTY_DEFINITION('material property','density of part',#512);
#272=AXIS2_PLACEMENT_3D('placement',#423,#321,#322);
#273=AXIS2_PLACEMENT_3D('',#424,#323,#324);
#274=AXIS2_PLACEMENT_3D('',#426,#325,#326);
#275=AXIS2_PLACEMENT_3D('',#428,#327,#328);
#276=AXIS2_PLACEMENT_3D('',#430,#329,#330);
#277=AXIS2_PLACEMENT_3D('',#431,#331,#332);
#278=AXIS2_PLACEMENT_3D('',#432,#333,#334);
#279=AXIS2_PLACEMENT_3D('',#435,#335,#336);
#280=AXIS2_PLACEMENT_3D('',#437,#338,#339);
#281=AXIS2_PLACEMENT_3D('',#438,#340,#341);
#282=AXIS2_PLACEMENT_3D('',#440,#342,#343);
#283=AXIS2_PLACEMENT_3D('',#441,#344,#345);
#284=AXIS2_PLACEMENT_3D('',#443,#346,#347);
#285=AXIS2_PLACEMENT_3D('',#444,#348,#349);
#286=AXIS2_PLACEMENT_3D('',#445,#350,#351);
#287=AXIS2_PLACEMENT_3D('',#447,#352,#353);
#288=AXIS2_PLACEMENT_3D('',#448,#354,#355);
#289=AXIS2_PLACEMENT_3D('',#450,#356,#357);
#290=AXIS2_PLACEMENT_3D('',#452,#358,#359);
#291=AXIS2_PLACEMENT_3D('',#454,#360,#361);
#292=AXIS2_PLACEMENT_3D('',#455,#362,#363);
#293=AXIS2_PLACEMENT_3D('',#456,#364,#365);
#294=AXIS2_PLACEMENT_3D('',#460,#367,#368);
#295=AXIS2_PLACEMENT_3D('',#461,#369,#370);
#296=AXIS2_PLACEMENT_3D('',#462,#371,#372);
#297=AXIS2_PLACEMENT_3D('',#464,#373,#374);
#298=AXIS2_PLACEMENT_3D('',#465,#375,#376);
#299=AXIS2_PLACEMENT_3D('',#466,#377,#378);
#300=AXIS2_PLACEMENT_3D('',#467,#379,#380);
#301=AXIS2_PLACEMENT_3D('',#469,#381,#382);
#302=AXIS2_PLACEMENT_3D('',#471,#383,#384);
#303=AXIS2_PLACEMENT_3D('',#472,#385,#386);
#304=AXIS2_PLACEMENT_3D('',#473,#387,#388);
#305=AXIS2_PLACEMENT_3D('',#477,#390,#391);
#306=AXIS2_PLACEMENT_3D('',#478,#392,#393);
#307=AXIS2_PLACEMENT_3D('',#479,#394,#395);
#308=AXIS2_PLACEMENT_3D('',#481,#396,#397);
#309=AXIS2_PLACEMENT_3D('',#483,#398,#399);
#310=AXIS2_PLACEMENT_3D('',#484,#400,#401);
#311=AXIS2_PLACEMENT_3D('',#485,#402,#403);
#312=AXIS2_PLACEMENT_3D('',#489,#405,#406);
#313=AXIS2_PLACEMENT_3D('',#490,#407,#408);
#314=AXIS2_PLACEMENT_3D('',#491,#409,#410);
#315=AXIS2_PLACEMENT_3D('',#493,#411,#412);
#316=AXIS2_PLACEMENT_3D('',#494,#413,#414);
#317=AXIS2_PLACEMENT_3D('',#495,#415,#416);
#318=AXIS2_PLACEMENT_3D('',#497,#417,#418);
#319=AXIS2_PLACEMENT_3D('',#498,#419,#420);
#320=AXIS2_PLACEMENT_3D('',#499,#421,#422);
#321=DIRECTION('axis',(0.,0.,1.));
#322=DIRECTION('refdir',(1.,0.,0.));
#323=DIRECTION('center_axis',(0.,-1.,0.));
#324=DIRECTION('ref_axis',(0.,0.,-1.));
#325=DIRECTION('center_axis',(0.,-1.,0.));
#326=DIRECTION('ref_axis',(-1.,0.,0.));
#327=DIRECTION('center_axis',(-1.,0.,0.));
#328=DIRECTION('ref_axis',(0.,0.,1.));
#329=DIRECTION('center_axis',(0.,1.,0.));
#330=DIRECTION('ref_axis',(-1.,0.,0.));
#331=DIRECTION('center_axis',(0.,1.,0.));
#332=DIRECTION('ref_axis',(-1.,0.,0.));
#333=DIRECTION('center_axis',(0.,-1.,0.));
#334=DIRECTION('ref_axis',(-1.,0.,0.));
#335=DIRECTION('center_axis',(0.,-1.,0.));
#336=DIRECTION('ref_axis',(-1.,0.,0.));
#337=DIRECTION('',(0.,-1.,0.));
#338=DIRECTION('center_axis',(0.,-1.,0.));
#339=DIRECTION('ref_axis',(-1.,0.,0.));
#340=DIRECTION('center_axis',(0.,1.,0.));
#341=DIRECTION('ref_axis',(-1.,0.,0.));
#342=DIRECTION('center_axis',(0.,1.,0.));
#343=DIRECTION('ref_axis',(-1.,0.,0.));
#344=DIRECTION('center_axis',(0.,-1.,0.));
#345=DIRECTION('ref_axis',(0.,0.,-1.));
#346=DIRECTION('center_axis',(0.,1.,0.));
#347=DIRECTION('ref_axis',(-1.,0.,0.));
#348=DIRECTION('center_axis',(-1.,0.,0.));
#349=DIRECTION('ref_axis',(0.,0.,1.));
#350=DIRECTION('center_axis',(0.,1.,0.));
#351=DIRECTION('ref_axis',(1.,0.,0.));
#352=DIRECTION('center_axis',(0.,-1.,0.));
#353=DIRECTION('ref_axis',(1.,0.,0.));
#354=DIRECTION('center_axis',(0.,1.,0.));
#355=DIRECTION('ref_axis',(0.,0.,1.));
#356=DIRECTION('center_axis',(0.,-1.,0.));
#357=DIRECTION('ref_axis',(-1.,0.,0.));
#358=DIRECTION('center_axis',(-1.,0.,0.));
#359=DIRECTION('ref_axis',(0.,0.,-1.));
#360=DIRECTION('center_axis',(0.,1.,0.));
#361=DIRECTION('ref_axis',(-1.,0.,0.));
#362=DIRECTION('center_axis',(0.,1.,0.));
#363=DIRECTION('ref_axis',(-1.,0.,0.));
#364=DIRECTION('center_axis',(0.,-1.,0.));
#365=DIRECTION('ref_axis',(-1.,0.,0.));
#366=DIRECTION('',(0.,-1.,0.));
#367=DIRECTION('center_axis',(0.,-1.,0.));
#368=DIRECTION('ref_axis',(-1.,0.,0.));
#369=DIRECTION('center_axis',(0.,-1.,0.));
#370=DIRECTION('ref_axis',(-1.,0.,0.));
#371=DIRECTION('center_axis',(0.,1.,0.));
#372=DIRECTION('ref_axis',(1.,0.,0.));
#373=DIRECTION('center_axis',(0.,1.,0.));
#374=DIRECTION('ref_axis',(1.,0.,0.));
#375=DIRECTION('center_axis',(0.,1.,0.));
#376=DIRECTION('ref_axis',(0.,0.,1.));
#377=DIRECTION('center_axis',(-1.,0.,0.));
#378=DIRECTION('ref_axis',(0.,0.,-1.));
#379=DIRECTION('center_axis',(0.,-1.,0.));
#380=DIRECTION('ref_axis',(0.,0.,-1.));
#381=DIRECTION('center_axis',(-1.,0.,0.));
#382=DIRECTION('ref_axis',(0.,0.,1.));
#383=DIRECTION('center_axis',(0.,-1.,0.));
#384=DIRECTION('ref_axis',(1.,0.,0.));
#385=DIRECTION('center_axis',(0.,-1.,0.));
#386=DIRECTION('ref_axis',(1.,0.,0.));
#387=DIRECTION('center_axis',(0.,1.,0.));
#388=DIRECTION('ref_axis',(1.,0.,0.));
#389=DIRECTION('',(0.,-1.,0.));
#390=DIRECTION('center_axis',(0.,1.,0.));
#391=DIRECTION('ref_axis',(1.,0.,0.));
#392=DIRECTION('center_axis',(0.,1.,0.));
#393=DIRECTION('ref_axis',(1.,0.,0.));
#394=DIRECTION('center_axis',(0.,1.,0.));
#395=DIRECTION('ref_axis',(0.,0.,1.));
#396=DIRECTION('center_axis',(-1.,0.,0.));
#397=DIRECTION('ref_axis',(0.,0.,-1.));
#398=DIRECTION('center_axis',(0.,1.,0.));
#399=DIRECTION('ref_axis',(1.,0.,0.));
#400=DIRECTION('center_axis',(0.,1.,0.));
#401=DIRECTION('ref_axis',(1.,0.,0.));
#402=DIRECTION('center_axis',(0.,1.,0.));
#403=DIRECTION('ref_axis',(1.,0.,0.));
#404=DIRECTION('',(0.,-1.,0.));
#405=DIRECTION('center_axis',(0.,-1.,0.));
#406=DIRECTION('ref_axis',(1.,0.,0.));
#407=DIRECTION('center_axis',(0.,-1.,0.));
#408=DIRECTION('ref_axis',(1.,0.,0.));
#409=DIRECTION('center_axis',(0.,-1.,0.));
#410=DIRECTION('ref_axis',(0.,0.,-1.));
#411=DIRECTION('center_axis',(-1.,0.,0.));
#412=DIRECTION('ref_axis',(0.,0.,1.));
#413=DIRECTION('center_axis',(0.,-1.,0.));
#414=DIRECTION('ref_axis',(1.,0.,0.));
#415=DIRECTION('center_axis',(0.,1.,0.));
#416=DIRECTION('ref_axis',(1.,0.,0.));
#417=DIRECTION('center_axis',(0.,1.,0.));
#418=DIRECTION('ref_axis',(1.,0.,0.));
#419=DIRECTION('center_axis',(0.,1.,0.));
#420=DIRECTION('ref_axis',(0.,0.,1.));
#421=DIRECTION('center_axis',(-1.,0.,0.));
#422=DIRECTION('ref_axis',(0.,0.,-1.));
#423=CARTESIAN_POINT('',(0.,0.,0.));
#424=CARTESIAN_POINT('Origin',(183.351998237459,7.6,119.588147050099));
#425=CARTESIAN_POINT('',(183.351998237459,7.5,139.688147050099));
#426=CARTESIAN_POINT('Origin',(183.351998237459,7.5,119.588147050099));
#427=CARTESIAN_POINT('',(183.351998237459,7.6,139.788147050099));
#428=CARTESIAN_POINT('Origin',(183.351998237459,7.6,139.688147050099));
#429=CARTESIAN_POINT('',(203.551998237459,7.6,119.588147050099));
#430=CARTESIAN_POINT('Origin',(183.351998237459,7.6,119.588147050099));
#431=CARTESIAN_POINT('Origin',(183.351998237459,7.6,119.588147050099));
#432=CARTESIAN_POINT('Origin',(183.351998237459,8.,119.588147050099));
#433=CARTESIAN_POINT('',(203.551998237459,7.9,119.588147050099));
#434=CARTESIAN_POINT('',(183.351998237459,7.9,139.788147050099));
#435=CARTESIAN_POINT('Origin',(183.351998237459,7.9,119.588147050099));
#436=CARTESIAN_POINT('',(203.551998237459,8.,119.588147050099));
#437=CARTESIAN_POINT('Origin',(183.351998237459,7.9,119.588147050099));
#438=CARTESIAN_POINT('Origin',(183.351998237459,7.5,119.588147050099));
#439=CARTESIAN_POINT('',(183.351998237459,7.5,112.088147050099));
#440=CARTESIAN_POINT('Origin',(183.351998237459,7.5,119.588147050099));
#441=CARTESIAN_POINT('Origin',(183.351998237459,7.9,119.588147050099));
#442=CARTESIAN_POINT('',(183.351998237459,8.,139.888147050099));
#443=CARTESIAN_POINT('Origin',(183.351998237459,8.,119.588147050099));
#444=CARTESIAN_POINT('Origin',(183.351998237459,7.9,139.888147050099));
#445=CARTESIAN_POINT('Origin',(183.351998237459,8.,119.588147050099));
#446=CARTESIAN_POINT('',(183.351998237459,8.,97.3881470500991));
#447=CARTESIAN_POINT('Origin',(183.351998237459,8.,119.588147050099));
#448=CARTESIAN_POINT('Origin',(183.351998237459,7.9,119.588147050099));
#449=CARTESIAN_POINT('',(183.351998237459,8.,112.288147050099));
#450=CARTESIAN_POINT('Origin',(183.351998237459,8.,119.588147050099));
#451=CARTESIAN_POINT('',(183.351998237459,7.9,112.188147050099));
#452=CARTESIAN_POINT('Origin',(183.351998237459,7.9,112.288147050099));
#453=CARTESIAN_POINT('',(190.751998237459,7.9,119.588147050099));
#454=CARTESIAN_POINT('Origin',(183.351998237459,7.9,119.588147050099));
#455=CARTESIAN_POINT('Origin',(183.351998237459,7.9,119.588147050099));
#456=CARTESIAN_POINT('Origin',(183.351998237459,8.,119.588147050099));
#457=CARTESIAN_POINT('',(190.751998237459,7.6,119.588147050099));
#458=CARTESIAN_POINT('',(190.751998237459,8.,119.588147050099));
#459=CARTESIAN_POINT('',(183.351998237459,7.6,112.188147050099));
#460=CARTESIAN_POINT('Origin',(183.351998237459,7.6,119.588147050099));
#461=CARTESIAN_POINT('Origin',(183.351998237459,7.6,119.588147050099));
#462=CARTESIAN_POINT('Origin',(183.351998237459,8.,119.588147050099));
#463=CARTESIAN_POINT('',(183.351998237459,8.,124.988147050099));
#464=CARTESIAN_POINT('Origin',(183.351998237459,8.,119.588147050099));
#465=CARTESIAN_POINT('Origin',(183.351998237459,7.6,119.588147050099));
#466=CARTESIAN_POINT('Origin',(183.351998237459,7.6,112.088147050099));
#467=CARTESIAN_POINT('Origin',(183.351998237459,7.7,119.588147050099));
#468=CARTESIAN_POINT('',(183.351998237459,7.7,124.688147050099));
#469=CARTESIAN_POINT('Origin',(183.351998237459,7.7,124.988147050099));
#470=CARTESIAN_POINT('',(178.251998237459,7.7,119.588147050099));
#471=CARTESIAN_POINT('Origin',(183.351998237459,7.7,119.588147050099));
#472=CARTESIAN_POINT('Origin',(183.351998237459,7.7,119.588147050099));
#473=CARTESIAN_POINT('Origin',(183.351998237459,-2.,119.588147050099));
#474=CARTESIAN_POINT('',(178.251998237459,-1.7,119.588147050099));
#475=CARTESIAN_POINT('',(178.251998237459,-2.,119.588147050099));
#476=CARTESIAN_POINT('',(183.351998237459,-1.7,124.688147050099));
#477=CARTESIAN_POINT('Origin',(183.351998237459,-1.7,119.588147050099));
#478=CARTESIAN_POINT('Origin',(183.351998237459,-1.7,119.588147050099));
#479=CARTESIAN_POINT('Origin',(183.351998237459,7.7,119.588147050099));
#480=CARTESIAN_POINT('',(183.351998237459,7.7,97.0881470500991));
#481=CARTESIAN_POINT('Origin',(183.351998237459,7.7,97.3881470500991));
#482=CARTESIAN_POINT('',(160.851998237459,7.7,119.588147050099));
#483=CARTESIAN_POINT('Origin',(183.351998237459,7.7,119.588147050099));
#484=CARTESIAN_POINT('Origin',(183.351998237459,7.7,119.588147050099));
#485=CARTESIAN_POINT('Origin',(183.351998237459,-2.,119.588147050099));
#486=CARTESIAN_POINT('',(160.851998237459,1.5,119.588147050099));
#487=CARTESIAN_POINT('',(160.851998237459,-2.,119.588147050099));
#488=CARTESIAN_POINT('',(183.351998237459,1.5,97.0881470500991));
#489=CARTESIAN_POINT('Origin',(183.351998237459,1.5,119.588147050099));
#490=CARTESIAN_POINT('Origin',(183.351998237459,1.5,119.588147050099));
#491=CARTESIAN_POINT('Origin',(183.351998237459,-1.7,119.588147050099));
#492=CARTESIAN_POINT('',(183.351998237459,-2.,124.988147050099));
#493=CARTESIAN_POINT('Origin',(183.351998237459,-1.7,124.988147050099));
#494=CARTESIAN_POINT('Origin',(183.351998237459,-2.,119.588147050099));
#495=CARTESIAN_POINT('Origin',(183.351998237459,-2.,119.588147050099));
#496=CARTESIAN_POINT('',(183.351998237459,-2.,100.588147050099));
#497=CARTESIAN_POINT('Origin',(183.351998237459,-2.,119.588147050099));
#498=CARTESIAN_POINT('Origin',(183.351998237459,1.5,119.588147050099));
#499=CARTESIAN_POINT('Origin',(183.351998237459,1.5,100.588147050099));
#500=UNCERTAINTY_MEASURE_WITH_UNIT(LENGTH_MEASURE(0.01),#504,
'DISTANCE_ACCURACY_VALUE',
'Maximum model space distance between geometric entities at asserted c
onnectivities');
#501=UNCERTAINTY_MEASURE_WITH_UNIT(LENGTH_MEASURE(0.01),#504,
'DISTANCE_ACCURACY_VALUE',
'Maximum model space distance between geometric entities at asserted c
onnectivities');
#502=(
GEOMETRIC_REPRESENTATION_CONTEXT(3)
GLOBAL_UNCERTAINTY_ASSIGNED_CONTEXT((#500))
GLOBAL_UNIT_ASSIGNED_CONTEXT((#504,#506,#507))
REPRESENTATION_CONTEXT('','3D')
);
#503=(
GEOMETRIC_REPRESENTATION_CONTEXT(3)
GLOBAL_UNCERTAINTY_ASSIGNED_CONTEXT((#501))
GLOBAL_UNIT_ASSIGNED_CONTEXT((#504,#506,#507))
REPRESENTATION_CONTEXT('','3D')
);
#504=(
LENGTH_UNIT()
NAMED_UNIT(*)
SI_UNIT(.MILLI.,.METRE.)
);
#505=(
LENGTH_UNIT()
NAMED_UNIT(*)
SI_UNIT($,.METRE.)
);
#506=(
NAMED_UNIT(*)
PLANE_ANGLE_UNIT()
SI_UNIT($,.RADIAN.)
);
#507=(
NAMED_UNIT(*)
SI_UNIT($,.STERADIAN.)
SOLID_ANGLE_UNIT()
);
#508=SHAPE_DEFINITION_REPRESENTATION(#509,#510);
#509=PRODUCT_DEFINITION_SHAPE('',$,#512);
#510=SHAPE_REPRESENTATION('',(#272),#502);
#511=PRODUCT_DEFINITION_CONTEXT('part definition',#516,'design');
#512=PRODUCT_DEFINITION('FusionComponent','FusionComponent',#513,#511);
#513=PRODUCT_DEFINITION_FORMATION('',$,#518);
#514=PRODUCT_RELATED_PRODUCT_CATEGORY('FusionComponent',
'FusionComponent',(#518));
#515=APPLICATION_PROTOCOL_DEFINITION('international standard',
'automotive_design',2009,#516);
#516=APPLICATION_CONTEXT(
'Core Data for Automotive Mechanical Design Process');
#517=PRODUCT_CONTEXT('part definition',#516,'mechanical');
#518=PRODUCT('FusionComponent','FusionComponent',$,(#517));
#519=PRESENTATION_STYLE_ASSIGNMENT((#520));
#520=SURFACE_STYLE_USAGE(.BOTH.,#521);
#521=SURFACE_SIDE_STYLE('',(#522));
#522=SURFACE_STYLE_FILL_AREA(#523);
#523=FILL_AREA_STYLE('Acier - Satin\X\E9',(#524));
#524=FILL_AREA_STYLE_COLOUR('Acier - Satin\X\E9',#525);
#525=COLOUR_RGB('Acier - Satin\X\E9',0.627450980392157,0.627450980392157,
0.627450980392157);
ENDSEC;
END-ISO-10303-21;
