ISO-10303-21;
HEADER;
FILE_DESCRIPTION (( 'STEP AP214' ),
    '1' );
FILE_NAME ('RD179102-RevA.STEP',
    '2021-12-10T12:01:02',
    ( '' ),
    ( '' ),
    'SwSTEP 2.0',
    'SolidWorks 2021',
    '' );
FILE_SCHEMA (( 'AUTOMOTIVE_DESIGN' ));
ENDSEC;

DATA;
#1 = CARTESIAN_POINT ( 'NONE',  ( 7.049999999999998934, 0.000000000000000000, 14.30000000000000249 ) ) ;
#2 = MECHANICAL_DESIGN_GEOMETRIC_PRESENTATION_REPRESENTATION (  '', ( #294 ), #27 ) ;
#3 = CARTESIAN_POINT ( 'NONE',  ( -2.228468370161906205E-15, 0.000000000000000000, 0.000000000000000000 ) ) ;
#4 = VERTEX_POINT ( 'NONE', #135 ) ;
#5 = EDGE_CURVE ( 'NONE', #41, #256, #47, .T. ) ;
#6 = VECTOR ( 'NONE', #61, 1000.000000000000000 ) ;
#7 = CARTESIAN_POINT ( 'NONE',  ( -9.327021538059252492, 0.000000000000000000, 0.000000000000000000 ) ) ;
#8 = ORIENTED_EDGE ( 'NONE', *, *, #79, .F. ) ;
#9 = DIRECTION ( 'NONE',  ( 1.000000000000000000, 0.000000000000000000, 0.000000000000000000 ) ) ;
#10 = EDGE_LOOP ( 'NONE', ( #349, #232, #20, #179 ) ) ;
#11 =( GEOMETRIC_REPRESENTATION_CONTEXT ( 3 ) GLOBAL_UNCERTAINTY_ASSIGNED_CONTEXT ( ( #278 ) ) GLOBAL_UNIT_ASSIGNED_CONTEXT ( ( #50, #215, #287 ) ) REPRESENTATION_CONTEXT ( 'NONE', 'WORKASPACE' ) );
#12 = ORIENTED_EDGE ( 'NONE', *, *, #169, .F. ) ;
#13 = CIRCLE ( 'NONE', #155, 14.30000000000000071 ) ;
#14 =( GEOMETRIC_REPRESENTATION_CONTEXT ( 3 ) GLOBAL_UNCERTAINTY_ASSIGNED_CONTEXT ( ( #124 ) ) GLOBAL_UNIT_ASSIGNED_CONTEXT ( ( #18, #328, #104 ) ) REPRESENTATION_CONTEXT ( 'NONE', 'WORKASPACE' ) );
#15 = DIRECTION ( 'NONE',  ( -1.000000000000000000, -0.000000000000000000, -0.000000000000000000 ) ) ;
#16 = ADVANCED_FACE ( 'NONE', ( #246 ), #331, .F. ) ;
#17 = FILL_AREA_STYLE ('',( #184 ) ) ;
#18 =( LENGTH_UNIT ( ) NAMED_UNIT ( * ) SI_UNIT ( .MILLI., .METRE. ) );
#19 = EDGE_CURVE ( 'NONE', #4, #130, #206, .T. ) ;
#20 = ORIENTED_EDGE ( 'NONE', *, *, #240, .T. ) ;
#21 = CYLINDRICAL_SURFACE ( 'NONE', #204, 14.30000000000000071 ) ;
#22 = DIRECTION ( 'NONE',  ( -1.000000000000000000, -0.000000000000000000, -0.000000000000000000 ) ) ;
#23 = DIRECTION ( 'NONE',  ( 0.000000000000000000, 0.000000000000000000, 1.000000000000000000 ) ) ;
#24 = CIRCLE ( 'NONE', #110, 5.249999999999999112 ) ;
#25 = FACE_OUTER_BOUND ( 'NONE', #237, .T. ) ;
#26 = CARTESIAN_POINT ( 'NONE',  ( -6.050000000000003375, 1.751244922780715104E-15, -14.30000000000000071 ) ) ;
#27 =( GEOMETRIC_REPRESENTATION_CONTEXT ( 3 ) GLOBAL_UNCERTAINTY_ASSIGNED_CONTEXT ( ( #39 ) ) GLOBAL_UNIT_ASSIGNED_CONTEXT ( ( #290, #321, #160 ) ) REPRESENTATION_CONTEXT ( 'NONE', 'WORKASPACE' ) );
#28 = MANIFOLD_SOLID_BREP ( 'Révolution1', #91 ) ;
#29 = ADVANCED_FACE ( 'NONE', ( #327 ), #139, .F. ) ;
#30 = CARTESIAN_POINT ( 'NONE',  ( -1.487557056677757651E-15, 0.000000000000000000, 0.000000000000000000 ) ) ;
#31 = ORIENTED_EDGE ( 'NONE', *, *, #298, .T. ) ;
#32 = AXIS2_PLACEMENT_3D ( 'NONE', #279, #87, #337 ) ;
#33 = AXIS2_PLACEMENT_3D ( 'NONE', #140, #192, #57 ) ;
#34 = FACE_OUTER_BOUND ( 'NONE', #72, .T. ) ;
#35 = DIRECTION ( 'NONE',  ( -1.000000000000000000, -0.000000000000000000, -0.000000000000000000 ) ) ;
#36 = VERTEX_POINT ( 'NONE', #194 ) ;
#37 = EDGE_CURVE ( 'NONE', #44, #256, #296, .T. ) ;
#38 = APPLICATION_CONTEXT ( 'automotive_design' ) ;
#39 = UNCERTAINTY_MEASURE_WITH_UNIT (LENGTH_MEASURE( 1.000000000000000082E-05 ), #290, 'distance_accuracy_value', 'NONE');
#40 = CARTESIAN_POINT ( 'NONE',  ( 7.049999999999998934, 0.000000000000000000, 0.000000000000000000 ) ) ;
#41 = VERTEX_POINT ( 'NONE', #163 ) ;
#42 = CARTESIAN_POINT ( 'NONE',  ( -6.050000000000003375, 0.000000000000000000, 0.000000000000000000 ) ) ;
#43 = PRODUCT ( 'RD179102-RevA', 'RD179102-RevA', '', ( #46 ) ) ;
#44 = VERTEX_POINT ( 'NONE', #224 ) ;
#45 = EDGE_LOOP ( 'NONE', ( #238, #183 ) ) ;
#46 = PRODUCT_CONTEXT ( 'NONE', #233, 'mechanical' ) ;
#47 = CIRCLE ( 'NONE', #292, 14.30000000000000249 ) ;
#48 = DIRECTION ( 'NONE',  ( -1.000000000000000000, -0.000000000000000000, -0.000000000000000000 ) ) ;
#49 = EDGE_CURVE ( 'NONE', #36, #271, #180, .T. ) ;
#50 =( LENGTH_UNIT ( ) NAMED_UNIT ( * ) SI_UNIT ( .MILLI., .METRE. ) );
#51 = ORIENTED_EDGE ( 'NONE', *, *, #19, .F. ) ;
#52 = AXIS2_PLACEMENT_3D ( 'NONE', #200, #284, #86 ) ;
#53 = LINE ( 'NONE', #162, #326 ) ;
#54 = DIRECTION ( 'NONE',  ( 0.000000000000000000, 0.000000000000000000, 1.000000000000000000 ) ) ;
#55 = AXIS2_PLACEMENT_3D ( 'NONE', #293, #103, #181 ) ;
#56 = PLANE ( 'NONE',  #360 ) ;
#57 = DIRECTION ( 'NONE',  ( 0.000000000000000000, 0.000000000000000000, 1.000000000000000000 ) ) ;
#58 = CARTESIAN_POINT ( 'NONE',  ( 6.049999999999998046, 0.000000000000000000, 0.000000000000000000 ) ) ;
#59 = EDGE_CURVE ( 'NONE', #295, #118, #24, .T. ) ;
#60 = DIRECTION ( 'NONE',  ( 0.000000000000000000, 0.000000000000000000, 1.000000000000000000 ) ) ;
#61 = DIRECTION ( 'NONE',  ( -1.000000000000000000, -0.000000000000000000, -0.000000000000000000 ) ) ;
#62 = CIRCLE ( 'NONE', #265, 8.250000000000000000 ) ;
#63 = LINE ( 'NONE', #145, #366 ) ;
#64 = EDGE_CURVE ( 'NONE', #241, #320, #275, .T. ) ;
#65 = ORIENTED_EDGE ( 'NONE', *, *, #64, .T. ) ;
#66 = DIRECTION ( 'NONE',  ( -1.000000000000000000, -0.000000000000000000, -0.000000000000000000 ) ) ;
#67 = ORIENTED_EDGE ( 'NONE', *, *, #351, .F. ) ;
#68 = CARTESIAN_POINT ( 'NONE',  ( 6.049999999999998046, 1.751244922780715104E-15, -14.30000000000000071 ) ) ;
#69 = ORIENTED_EDGE ( 'NONE', *, *, #302, .T. ) ;
#70 = EDGE_CURVE ( 'NONE', #130, #118, #357, .T. ) ;
#71 = EDGE_LOOP ( 'NONE', ( #93, #89, #12, #212 ) ) ;
#72 = EDGE_LOOP ( 'NONE', ( #205, #65, #289, #220 ) ) ;
#73 = AXIS2_PLACEMENT_3D ( 'NONE', #225, #365, #77 ) ;
#74 = SURFACE_STYLE_USAGE ( .BOTH. , #105 ) ;
#75 = ORIENTED_EDGE ( 'NONE', *, *, #317, .T. ) ;
#76 = AXIS2_PLACEMENT_3D ( 'NONE', #270, #348, #95 ) ;
#77 = DIRECTION ( 'NONE',  ( 0.000000000000000000, 0.000000000000000000, 1.000000000000000000 ) ) ;
#78 = DIRECTION ( 'NONE',  ( -1.000000000000000000, -0.000000000000000000, -0.000000000000000000 ) ) ;
#79 = EDGE_CURVE ( 'NONE', #44, #322, #336, .T. ) ;
#80 = DIRECTION ( 'NONE',  ( 0.000000000000000000, -1.224646799147353207E-16, 1.000000000000000000 ) ) ;
#81 = PRODUCT_DEFINITION_FORMATION_WITH_SPECIFIED_SOURCE ( 'ANY', '', #43, .NOT_KNOWN. ) ;
#82 = DIRECTION ( 'NONE',  ( -1.000000000000000000, -0.000000000000000000, -0.000000000000000000 ) ) ;
#83 = CARTESIAN_POINT ( 'NONE',  ( -7.050000000000001599, 0.000000000000000000, 0.000000000000000000 ) ) ;
#84 = CIRCLE ( 'NONE', #52, 14.30000000000000071 ) ;
#85 = EDGE_CURVE ( 'NONE', #271, #244, #123, .T. ) ;
#86 = DIRECTION ( 'NONE',  ( 0.000000000000000000, 0.000000000000000000, 1.000000000000000000 ) ) ;
#87 = DIRECTION ( 'NONE',  ( -1.000000000000000000, -0.000000000000000000, -0.000000000000000000 ) ) ;
#88 = FACE_OUTER_BOUND ( 'NONE', #10, .T. ) ;
#89 = ORIENTED_EDGE ( 'NONE', *, *, #361, .T. ) ;
#90 = PRODUCT_DEFINITION_CONTEXT ( 'detailed design', #38, 'design' ) ;
#91 = CLOSED_SHELL ( 'NONE', ( #16, #29, #149, #268, #107, #261, #119, #177, #128, #112, #340, #251 ) ) ;
#92 = CARTESIAN_POINT ( 'NONE',  ( -6.050000000000003375, 0.000000000000000000, 0.000000000000000000 ) ) ;
#93 = ORIENTED_EDGE ( 'NONE', *, *, #79, .T. ) ;
#94 = DIRECTION ( 'NONE',  ( 0.000000000000000000, 0.000000000000000000, -1.000000000000000000 ) ) ;
#95 = DIRECTION ( 'NONE',  ( 1.000000000000000000, 0.000000000000000000, 0.000000000000000000 ) ) ;
#96 = EDGE_LOOP ( 'NONE', ( #129, #152, #121, #98 ) ) ;
#97 = EDGE_CURVE ( 'NONE', #143, #41, #53, .T. ) ;
#98 = ORIENTED_EDGE ( 'NONE', *, *, #37, .F. ) ;
#99 = DIRECTION ( 'NONE',  ( -1.000000000000000000, -0.000000000000000000, -0.000000000000000000 ) ) ;
#100 = ORIENTED_EDGE ( 'NONE', *, *, #219, .T. ) ;
#101 = EDGE_CURVE ( 'NONE', #256, #41, #311, .T. ) ;
#102 = EDGE_LOOP ( 'NONE', ( #51, #75, #214, #210 ) ) ;
#103 = DIRECTION ( 'NONE',  ( -1.000000000000000000, -0.000000000000000000, -0.000000000000000000 ) ) ;
#104 =( NAMED_UNIT ( * ) SI_UNIT ( $, .STERADIAN. ) SOLID_ANGLE_UNIT ( ) );
#105 = SURFACE_SIDE_STYLE ('',( #242 ) ) ;
#106 = CARTESIAN_POINT ( 'NONE',  ( -2.228468370161906205E-15, 0.000000000000000000, 14.30000000000000071 ) ) ;
#107 = ADVANCED_FACE ( 'NONE', ( #227 ), #193, .F. ) ;
#108 = VECTOR ( 'NONE', #231, 1000.000000000000000 ) ;
#109 = DIRECTION ( 'NONE',  ( -1.000000000000000000, 0.000000000000000000, -0.000000000000000000 ) ) ;
#110 = AXIS2_PLACEMENT_3D ( 'NONE', #83, #78, #305 ) ;
#111 = DIRECTION ( 'NONE',  ( 0.000000000000000000, 0.000000000000000000, 1.000000000000000000 ) ) ;
#112 = ADVANCED_FACE ( 'NONE', ( #250, #276 ), #56, .F. ) ;
#113 = FACE_OUTER_BOUND ( 'NONE', #308, .T. ) ;
#114 = DIRECTION ( 'NONE',  ( -1.000000000000000000, -0.000000000000000000, -0.000000000000000000 ) ) ;
#115 = PRESENTATION_LAYER_ASSIGNMENT (  '', '', ( #304 ) ) ;
#116 = DIRECTION ( 'NONE',  ( 0.000000000000000000, 0.000000000000000000, 1.000000000000000000 ) ) ;
#117 = DIRECTION ( 'NONE',  ( -1.000000000000000000, -0.000000000000000000, -0.000000000000000000 ) ) ;
#118 = VERTEX_POINT ( 'NONE', #277 ) ;
#119 = ADVANCED_FACE ( 'NONE', ( #25 ), #21, .T. ) ;
#120 = FACE_OUTER_BOUND ( 'NONE', #174, .T. ) ;
#121 = ORIENTED_EDGE ( 'NONE', *, *, #101, .F. ) ;
#122 = AXIS2_PLACEMENT_3D ( 'NONE', #252, #190, #338 ) ;
#123 = CIRCLE ( 'NONE', #297, 14.30000000000000071 ) ;
#124 = UNCERTAINTY_MEASURE_WITH_UNIT (LENGTH_MEASURE( 1.000000000000000082E-05 ), #18, 'distance_accuracy_value', 'NONE');
#125 = DIRECTION ( 'NONE',  ( 0.000000000000000000, 0.000000000000000000, 1.000000000000000000 ) ) ;
#126 = ORIENTED_EDGE ( 'NONE', *, *, #101, .T. ) ;
#127 = DIRECTION ( 'NONE',  ( 0.000000000000000000, -1.000000000000000000, 0.000000000000000000 ) ) ;
#128 = ADVANCED_FACE ( 'NONE', ( #138 ), #249, .F. ) ;
#129 = ORIENTED_EDGE ( 'NONE', *, *, #333, .T. ) ;
#130 = VERTEX_POINT ( 'NONE', #364 ) ;
#131 = APPLICATION_PROTOCOL_DEFINITION ( 'draft international standard', 'automotive_design', 1998, #38 ) ;
#132 = FILL_AREA_STYLE ('',( #356 ) ) ;
#133 = TOROIDAL_SURFACE ( 'NONE', #73, 14.30000000000000071, 6.050000000000000711 ) ;
#134 = AXIS2_PLACEMENT_3D ( 'NONE', #325, #269, #267 ) ;
#135 = CARTESIAN_POINT ( 'NONE',  ( 7.050000000000002487, 6.429395695523605139E-16, -5.250000000000000888 ) ) ;
#136 = CARTESIAN_POINT ( 'NONE',  ( -2.228468370161906205E-15, 0.000000000000000000, 0.000000000000000000 ) ) ;
#137 = DIRECTION ( 'NONE',  ( -1.000000000000000000, -0.000000000000000000, -0.000000000000000000 ) ) ;
#138 = FACE_OUTER_BOUND ( 'NONE', #262, .T. ) ;
#139 = TOROIDAL_SURFACE ( 'NONE', #187, 14.30000000000000071, 6.050000000000000711 ) ;
#140 = CARTESIAN_POINT ( 'NONE',  ( -9.327021538059252492, 0.000000000000000000, 0.000000000000000000 ) ) ;
#141 = COLOUR_RGB ( '',0.5294117647058823595, 0.5490196078431373028, 0.5490196078431373028 ) ;
#142 = DIRECTION ( 'NONE',  ( 0.000000000000000000, 0.000000000000000000, 1.000000000000000000 ) ) ;
#143 = VERTEX_POINT ( 'NONE', #26 ) ;
#144 = FACE_BOUND ( 'NONE', #283, .T. ) ;
#145 = CARTESIAN_POINT ( 'NONE',  ( -9.327021538059252492, 1.751244922780715104E-15, -14.30000000000000071 ) ) ;
#146 = DIRECTION ( 'NONE',  ( -1.000000000000000000, -0.000000000000000000, -0.000000000000000000 ) ) ;
#147 = ORIENTED_EDGE ( 'NONE', *, *, #243, .F. ) ;
#148 = AXIS2_PLACEMENT_3D ( 'NONE', #257, #117, #341 ) ;
#149 = ADVANCED_FACE ( 'NONE', ( #113 ), #133, .F. ) ;
#150 = DIRECTION ( 'NONE',  ( 0.000000000000000000, 0.000000000000000000, 1.000000000000000000 ) ) ;
#151 = ORIENTED_EDGE ( 'NONE', *, *, #97, .F. ) ;
#152 = ORIENTED_EDGE ( 'NONE', *, *, #97, .T. ) ;
#153 = SURFACE_SIDE_STYLE ('',( #323 ) ) ;
#154 = ORIENTED_EDGE ( 'NONE', *, *, #49, .T. ) ;
#155 = AXIS2_PLACEMENT_3D ( 'NONE', #42, #254, #60 ) ;
#156 = AXIS2_PLACEMENT_3D ( 'NONE', #329, #137, #358 ) ;
#157 = DIRECTION ( 'NONE',  ( 0.000000000000000000, 0.000000000000000000, 1.000000000000000000 ) ) ;
#158 = PRODUCT_RELATED_PRODUCT_CATEGORY ( 'part', '', ( #43 ) ) ;
#159 = SHAPE_DEFINITION_REPRESENTATION ( #286, #362 ) ;
#160 =( NAMED_UNIT ( * ) SI_UNIT ( $, .STERADIAN. ) SOLID_ANGLE_UNIT ( ) );
#161 = EDGE_LOOP ( 'NONE', ( #312, #69, #8, #352 ) ) ;
#162 = CARTESIAN_POINT ( 'NONE',  ( -9.327021538059252492, 1.751244922780715104E-15, -14.30000000000000071 ) ) ;
#163 = CARTESIAN_POINT ( 'NONE',  ( -7.050000000000002487, 1.751244922780715498E-15, -14.30000000000000426 ) ) ;
#164 = CARTESIAN_POINT ( 'NONE',  ( -9.327021538059252492, 0.000000000000000000, 0.000000000000000000 ) ) ;
#165 = AXIS2_PLACEMENT_3D ( 'NONE', #236, #146, #116 ) ;
#166 = DIRECTION ( 'NONE',  ( -1.000000000000000000, -0.000000000000000000, -0.000000000000000000 ) ) ;
#167 = CARTESIAN_POINT ( 'NONE',  ( 7.050000000000000711, 5.250000000000000888, 0.000000000000000000 ) ) ;
#168 = CARTESIAN_POINT ( 'NONE',  ( -7.050000000000002487, 14.30000000000000249, 0.000000000000000000 ) ) ;
#169 = EDGE_CURVE ( 'NONE', #143, #36, #342, .T. ) ;
#170 = CARTESIAN_POINT ( 'NONE',  ( -1.487557056677757454E-15, 0.000000000000000000, 8.249999999999998224 ) ) ;
#171 = CIRCLE ( 'NONE', #303, 14.30000000000000071 ) ;
#172 = ORIENTED_EDGE ( 'NONE', *, *, #70, .T. ) ;
#173 = FACE_OUTER_BOUND ( 'NONE', #96, .T. ) ;
#174 = EDGE_LOOP ( 'NONE', ( #126, #208 ) ) ;
#175 = DIRECTION ( 'NONE',  ( 0.000000000000000000, 0.000000000000000000, -1.000000000000000000 ) ) ;
#176 = ORIENTED_EDGE ( 'NONE', *, *, #185, .T. ) ;
#177 = ADVANCED_FACE ( 'NONE', ( #144, #120 ), #281, .F. ) ;
#178 = CARTESIAN_POINT ( 'NONE',  ( -2.228468370161906205E-15, 0.000000000000000000, 14.30000000000000071 ) ) ;
#179 = ORIENTED_EDGE ( 'NONE', *, *, #49, .F. ) ;
#180 = CIRCLE ( 'NONE', #222, 6.049999999999999822 ) ;
#181 = DIRECTION ( 'NONE',  ( 0.000000000000000000, 0.000000000000000000, 1.000000000000000000 ) ) ;
#182 = PRESENTATION_STYLE_ASSIGNMENT (( #218 ) ) ;
#183 = ORIENTED_EDGE ( 'NONE', *, *, #64, .F. ) ;
#184 = FILL_AREA_STYLE_COLOUR ( '', #141 ) ;
#185 = EDGE_CURVE ( 'NONE', #320, #241, #330, .T. ) ;
#186 = DIRECTION ( 'NONE',  ( 0.000000000000000000, 0.000000000000000000, 1.000000000000000000 ) ) ;
#187 = AXIS2_PLACEMENT_3D ( 'NONE', #136, #22, #54 ) ;
#188 = PRESENTATION_STYLE_ASSIGNMENT (( #74 ) ) ;
#189 = EDGE_CURVE ( 'NONE', #241, #271, #63, .T. ) ;
#190 = DIRECTION ( 'NONE',  ( -0.000000000000000000, 1.000000000000000000, 1.224646799147353207E-16 ) ) ;
#191 = CIRCLE ( 'NONE', #165, 5.249999999999999112 ) ;
#192 = DIRECTION ( 'NONE',  ( -1.000000000000000000, -0.000000000000000000, -0.000000000000000000 ) ) ;
#193 = CYLINDRICAL_SURFACE ( 'NONE', #33, 5.250000000000000000 ) ;
#194 = CARTESIAN_POINT ( 'NONE',  ( -1.487557056677757454E-15, 1.010333609296566353E-15, -8.249999999999998224 ) ) ;
#195 = CIRCLE ( 'NONE', #55, 8.250000000000000000 ) ;
#196 = CARTESIAN_POINT ( 'NONE',  ( -2.228468370161906205E-15, 1.751244922780715104E-15, -14.30000000000000071 ) ) ;
#197 = AXIS2_PLACEMENT_3D ( 'NONE', #221, #114, #247 ) ;
#198 = CARTESIAN_POINT ( 'NONE',  ( -7.050000000000002487, 0.000000000000000000, 14.30000000000000249 ) ) ;
#199 = PRODUCT_DEFINITION ( 'UNKNOWN', '', #81, #90 ) ;
#200 = CARTESIAN_POINT ( 'NONE',  ( 6.049999999999998046, 0.000000000000000000, 0.000000000000000000 ) ) ;
#201 = ORIENTED_EDGE ( 'NONE', *, *, #59, .F. ) ;
#202 = AXIS2_PLACEMENT_3D ( 'NONE', #7, #258, #150 ) ;
#203 = CARTESIAN_POINT ( 'NONE',  ( 7.049999999999998934, 1.751244922780715498E-15, -14.30000000000000426 ) ) ;
#204 = AXIS2_PLACEMENT_3D ( 'NONE', #164, #274, #23 ) ;
#205 = ORIENTED_EDGE ( 'NONE', *, *, #189, .F. ) ;
#206 = CIRCLE ( 'NONE', #134, 5.250000000000000888 ) ;
#207 = DIRECTION ( 'NONE',  ( 0.000000000000000000, 0.000000000000000000, 1.000000000000000000 ) ) ;
#208 = ORIENTED_EDGE ( 'NONE', *, *, #5, .T. ) ;
#209 = LINE ( 'NONE', #234, #108 ) ;
#210 = ORIENTED_EDGE ( 'NONE', *, *, #70, .F. ) ;
#211 = APPLICATION_PROTOCOL_DEFINITION ( 'draft international standard', 'automotive_design', 1998, #233 ) ;
#212 = ORIENTED_EDGE ( 'NONE', *, *, #333, .F. ) ;
#213 = AXIS2_PLACEMENT_3D ( 'NONE', #106, #299, #334 ) ;
#214 = ORIENTED_EDGE ( 'NONE', *, *, #59, .T. ) ;
#215 =( NAMED_UNIT ( * ) PLANE_ANGLE_UNIT ( ) SI_UNIT ( $, .RADIAN. ) );
#216 = ORIENTED_EDGE ( 'NONE', *, *, #219, .F. ) ;
#217 = ORIENTED_EDGE ( 'NONE', *, *, #317, .F. ) ;
#218 = SURFACE_STYLE_USAGE ( .BOTH. , #153 ) ;
#219 = EDGE_CURVE ( 'NONE', #118, #295, #191, .T. ) ;
#220 = ORIENTED_EDGE ( 'NONE', *, *, #85, .F. ) ;
#221 = CARTESIAN_POINT ( 'NONE',  ( 7.049999999999998934, 0.000000000000000000, 0.000000000000000000 ) ) ;
#222 = AXIS2_PLACEMENT_3D ( 'NONE', #196, #223, #80 ) ;
#223 = DIRECTION ( 'NONE',  ( -0.000000000000000000, 1.000000000000000000, 1.224646799147353207E-16 ) ) ;
#224 = CARTESIAN_POINT ( 'NONE',  ( -6.050000000000003375, 0.000000000000000000, 14.30000000000000071 ) ) ;
#225 = CARTESIAN_POINT ( 'NONE',  ( -2.228468370161906205E-15, 0.000000000000000000, 0.000000000000000000 ) ) ;
#226 = AXIS2_PLACEMENT_3D ( 'NONE', #40, #310, #125 ) ;
#227 = FACE_OUTER_BOUND ( 'NONE', #102, .T. ) ;
#228 = AXIS2_PLACEMENT_3D ( 'NONE', #291, #48, #157 ) ;
#229 = EDGE_CURVE ( 'NONE', #322, #244, #309, .T. ) ;
#230 = CYLINDRICAL_SURFACE ( 'NONE', #202, 14.30000000000000071 ) ;
#231 = DIRECTION ( 'NONE',  ( -1.000000000000000000, -0.000000000000000000, -0.000000000000000000 ) ) ;
#232 = ORIENTED_EDGE ( 'NONE', *, *, #229, .T. ) ;
#233 = APPLICATION_CONTEXT ( 'automotive_design' ) ;
#234 = CARTESIAN_POINT ( 'NONE',  ( -9.327021538059252492, 0.000000000000000000, 14.30000000000000071 ) ) ;
#235 = ORIENTED_EDGE ( 'NONE', *, *, #85, .T. ) ;
#236 = CARTESIAN_POINT ( 'NONE',  ( -7.050000000000001599, 0.000000000000000000, 0.000000000000000000 ) ) ;
#237 = EDGE_LOOP ( 'NONE', ( #151, #31, #316, #344 ) ) ;
#238 = ORIENTED_EDGE ( 'NONE', *, *, #185, .F. ) ;
#239 = AXIS2_PLACEMENT_3D ( 'NONE', #3, #315, #285 ) ;
#240 = EDGE_CURVE ( 'NONE', #244, #271, #84, .T. ) ;
#241 = VERTEX_POINT ( 'NONE', #203 ) ;
#242 = SURFACE_STYLE_FILL_AREA ( #132 ) ;
#243 = EDGE_CURVE ( 'NONE', #320, #244, #209, .T. ) ;
#244 = VERTEX_POINT ( 'NONE', #343 ) ;
#245 = AXIS2_PLACEMENT_3D ( 'NONE', #178, #127, #94 ) ;
#246 = FACE_OUTER_BOUND ( 'NONE', #71, .T. ) ;
#247 = DIRECTION ( 'NONE',  ( 0.000000000000000000, 0.000000000000000000, 1.000000000000000000 ) ) ;
#248 = DIRECTION ( 'NONE',  ( -1.000000000000000000, -0.000000000000000000, -0.000000000000000000 ) ) ;
#249 = CYLINDRICAL_SURFACE ( 'NONE', #318, 5.250000000000000000 ) ;
#250 = FACE_OUTER_BOUND ( 'NONE', #45, .T. ) ;
#251 = ADVANCED_FACE ( 'NONE', ( #88 ), #253, .F. ) ;
#252 = CARTESIAN_POINT ( 'NONE',  ( -2.228468370161906205E-15, 1.751244922780715104E-15, -14.30000000000000071 ) ) ;
#253 = TOROIDAL_SURFACE ( 'NONE', #239, 14.30000000000000071, 6.050000000000000711 ) ;
#254 = DIRECTION ( 'NONE',  ( -1.000000000000000000, -0.000000000000000000, -0.000000000000000000 ) ) ;
#255 = VECTOR ( 'NONE', #82, 1000.000000000000000 ) ;
#256 = VERTEX_POINT ( 'NONE', #198 ) ;
#257 = CARTESIAN_POINT ( 'NONE',  ( -9.327021538059252492, 0.000000000000000000, 0.000000000000000000 ) ) ;
#258 = DIRECTION ( 'NONE',  ( -1.000000000000000000, -0.000000000000000000, -0.000000000000000000 ) ) ;
#259 = EDGE_LOOP ( 'NONE', ( #280, #339 ) ) ;
#260 = CARTESIAN_POINT ( 'NONE',  ( -9.327021538059252492, 6.429395695523604153E-16, -5.250000000000000000 ) ) ;
#261 = ADVANCED_FACE ( 'NONE', ( #173 ), #230, .T. ) ;
#262 = EDGE_LOOP ( 'NONE', ( #217, #67, #172, #100 ) ) ;
#263 = CARTESIAN_POINT ( 'NONE',  ( 7.050000000000002487, 0.000000000000000000, 0.000000000000000000 ) ) ;
#264 = ORIENTED_EDGE ( 'NONE', *, *, #229, .F. ) ;
#265 = AXIS2_PLACEMENT_3D ( 'NONE', #30, #307, #142 ) ;
#266 = CIRCLE ( 'NONE', #354, 5.250000000000000888 ) ;
#267 = DIRECTION ( 'NONE',  ( 0.000000000000000000, 0.000000000000000000, 1.000000000000000000 ) ) ;
#268 = ADVANCED_FACE ( 'NONE', ( #345 ), #368, .T. ) ;
#269 = DIRECTION ( 'NONE',  ( -1.000000000000000000, -0.000000000000000000, -0.000000000000000000 ) ) ;
#270 = CARTESIAN_POINT ( 'NONE',  ( 0.000000000000000000, 0.000000000000000000, 0.000000000000000000 ) ) ;
#271 = VERTEX_POINT ( 'NONE', #68 ) ;
#272 = DIRECTION ( 'NONE',  ( -1.000000000000000000, -0.000000000000000000, -0.000000000000000000 ) ) ;
#273 = DIRECTION ( 'NONE',  ( -1.000000000000000000, -0.000000000000000000, -0.000000000000000000 ) ) ;
#274 = DIRECTION ( 'NONE',  ( -1.000000000000000000, -0.000000000000000000, -0.000000000000000000 ) ) ;
#275 = CIRCLE ( 'NONE', #197, 14.30000000000000249 ) ;
#276 = FACE_BOUND ( 'NONE', #259, .T. ) ;
#277 = CARTESIAN_POINT ( 'NONE',  ( -7.050000000000001599, 0.000000000000000000, 5.249999999999999112 ) ) ;
#278 = UNCERTAINTY_MEASURE_WITH_UNIT (LENGTH_MEASURE( 1.000000000000000082E-05 ), #50, 'distance_accuracy_value', 'NONE');
#279 = CARTESIAN_POINT ( 'NONE',  ( -9.327021538059252492, 0.000000000000000000, 0.000000000000000000 ) ) ;
#280 = ORIENTED_EDGE ( 'NONE', *, *, #351, .T. ) ;
#281 = PLANE ( 'NONE',  #359 ) ;
#282 = CARTESIAN_POINT ( 'NONE',  ( -7.050000000000001599, 6.429395695523604153E-16, -5.249999999999999112 ) ) ;
#283 = EDGE_LOOP ( 'NONE', ( #216, #201 ) ) ;
#284 = DIRECTION ( 'NONE',  ( -1.000000000000000000, -0.000000000000000000, -0.000000000000000000 ) ) ;
#285 = DIRECTION ( 'NONE',  ( 0.000000000000000000, 0.000000000000000000, 1.000000000000000000 ) ) ;
#286 = PRODUCT_DEFINITION_SHAPE ( 'NONE', 'NONE',  #199 ) ;
#287 =( NAMED_UNIT ( * ) SI_UNIT ( $, .STERADIAN. ) SOLID_ANGLE_UNIT ( ) );
#288 = DIRECTION ( 'NONE',  ( 0.000000000000000000, 0.000000000000000000, 1.000000000000000000 ) ) ;
#289 = ORIENTED_EDGE ( 'NONE', *, *, #243, .T. ) ;
#290 =( LENGTH_UNIT ( ) NAMED_UNIT ( * ) SI_UNIT ( .MILLI., .METRE. ) );
#291 = CARTESIAN_POINT ( 'NONE',  ( -2.228468370161906205E-15, 0.000000000000000000, 0.000000000000000000 ) ) ;
#292 = AXIS2_PLACEMENT_3D ( 'NONE', #353, #15, #186 ) ;
#293 = CARTESIAN_POINT ( 'NONE',  ( -1.487557056677757651E-15, 0.000000000000000000, 0.000000000000000000 ) ) ;
#294 = STYLED_ITEM ( 'NONE', ( #182 ), #362 ) ;
#295 = VERTEX_POINT ( 'NONE', #282 ) ;
#296 = LINE ( 'NONE', #335, #255 ) ;
#297 = AXIS2_PLACEMENT_3D ( 'NONE', #58, #272, #300 ) ;
#298 = EDGE_CURVE ( 'NONE', #143, #44, #13, .T. ) ;
#299 = DIRECTION ( 'NONE',  ( 0.000000000000000000, -1.000000000000000000, 0.000000000000000000 ) ) ;
#300 = DIRECTION ( 'NONE',  ( 0.000000000000000000, 0.000000000000000000, 1.000000000000000000 ) ) ;
#301 = CARTESIAN_POINT ( 'NONE',  ( -9.327021538059252492, 0.000000000000000000, 5.250000000000000000 ) ) ;
#302 = EDGE_CURVE ( 'NONE', #36, #322, #62, .T. ) ;
#303 = AXIS2_PLACEMENT_3D ( 'NONE', #92, #35, #207 ) ;
#304 = STYLED_ITEM ( 'NONE', ( #188 ), #28 ) ;
#305 = DIRECTION ( 'NONE',  ( 0.000000000000000000, 0.000000000000000000, 1.000000000000000000 ) ) ;
#306 = LINE ( 'NONE', #260, #6 ) ;
#307 = DIRECTION ( 'NONE',  ( -1.000000000000000000, -0.000000000000000000, -0.000000000000000000 ) ) ;
#308 = EDGE_LOOP ( 'NONE', ( #314, #154, #235, #264 ) ) ;
#309 = CIRCLE ( 'NONE', #245, 6.049999999999999822 ) ;
#310 = DIRECTION ( 'NONE',  ( -1.000000000000000000, -0.000000000000000000, -0.000000000000000000 ) ) ;
#311 = CIRCLE ( 'NONE', #156, 14.30000000000000249 ) ;
#312 = ORIENTED_EDGE ( 'NONE', *, *, #169, .T. ) ;
#313 = CYLINDRICAL_SURFACE ( 'NONE', #148, 14.30000000000000071 ) ;
#314 = ORIENTED_EDGE ( 'NONE', *, *, #302, .F. ) ;
#315 = DIRECTION ( 'NONE',  ( -1.000000000000000000, -0.000000000000000000, -0.000000000000000000 ) ) ;
#316 = ORIENTED_EDGE ( 'NONE', *, *, #37, .T. ) ;
#317 = EDGE_CURVE ( 'NONE', #4, #295, #306, .T. ) ;
#318 = AXIS2_PLACEMENT_3D ( 'NONE', #363, #166, #111 ) ;
#319 = VECTOR ( 'NONE', #248, 1000.000000000000000 ) ;
#320 = VERTEX_POINT ( 'NONE', #1 ) ;
#321 =( NAMED_UNIT ( * ) PLANE_ANGLE_UNIT ( ) SI_UNIT ( $, .RADIAN. ) );
#322 = VERTEX_POINT ( 'NONE', #170 ) ;
#323 = SURFACE_STYLE_FILL_AREA ( #17 ) ;
#324 = EDGE_LOOP ( 'NONE', ( #176, #350, #346, #147 ) ) ;
#325 = CARTESIAN_POINT ( 'NONE',  ( 7.050000000000002487, 0.000000000000000000, 0.000000000000000000 ) ) ;
#326 = VECTOR ( 'NONE', #273, 1000.000000000000000 ) ;
#327 = FACE_OUTER_BOUND ( 'NONE', #161, .T. ) ;
#328 =( NAMED_UNIT ( * ) PLANE_ANGLE_UNIT ( ) SI_UNIT ( $, .RADIAN. ) );
#329 = CARTESIAN_POINT ( 'NONE',  ( -7.050000000000002487, 0.000000000000000000, 0.000000000000000000 ) ) ;
#330 = CIRCLE ( 'NONE', #226, 14.30000000000000249 ) ;
#331 = TOROIDAL_SURFACE ( 'NONE', #228, 14.30000000000000071, 6.050000000000000711 ) ;
#332 = DIRECTION ( 'NONE',  ( -0.000000000000000000, 0.000000000000000000, 1.000000000000000000 ) ) ;
#333 = EDGE_CURVE ( 'NONE', #44, #143, #171, .T. ) ;
#334 = DIRECTION ( 'NONE',  ( 0.000000000000000000, 0.000000000000000000, -1.000000000000000000 ) ) ;
#335 = CARTESIAN_POINT ( 'NONE',  ( -9.327021538059252492, 0.000000000000000000, 14.30000000000000071 ) ) ;
#336 = CIRCLE ( 'NONE', #213, 6.049999999999999822 ) ;
#337 = DIRECTION ( 'NONE',  ( 0.000000000000000000, 0.000000000000000000, 1.000000000000000000 ) ) ;
#338 = DIRECTION ( 'NONE',  ( 0.000000000000000000, -1.224646799147353207E-16, 1.000000000000000000 ) ) ;
#339 = ORIENTED_EDGE ( 'NONE', *, *, #19, .T. ) ;
#340 = ADVANCED_FACE ( 'NONE', ( #34 ), #313, .T. ) ;
#341 = DIRECTION ( 'NONE',  ( 0.000000000000000000, 0.000000000000000000, 1.000000000000000000 ) ) ;
#342 = CIRCLE ( 'NONE', #122, 6.049999999999999822 ) ;
#343 = CARTESIAN_POINT ( 'NONE',  ( 6.049999999999998046, 0.000000000000000000, 14.30000000000000071 ) ) ;
#344 = ORIENTED_EDGE ( 'NONE', *, *, #5, .F. ) ;
#345 = FACE_OUTER_BOUND ( 'NONE', #324, .T. ) ;
#346 = ORIENTED_EDGE ( 'NONE', *, *, #240, .F. ) ;
#347 = PRESENTATION_LAYER_ASSIGNMENT (  '', '', ( #294 ) ) ;
#348 = DIRECTION ( 'NONE',  ( 0.000000000000000000, 0.000000000000000000, 1.000000000000000000 ) ) ;
#349 = ORIENTED_EDGE ( 'NONE', *, *, #361, .F. ) ;
#350 = ORIENTED_EDGE ( 'NONE', *, *, #189, .T. ) ;
#351 = EDGE_CURVE ( 'NONE', #130, #4, #266, .T. ) ;
#352 = ORIENTED_EDGE ( 'NONE', *, *, #298, .F. ) ;
#353 = CARTESIAN_POINT ( 'NONE',  ( -7.050000000000002487, 0.000000000000000000, 0.000000000000000000 ) ) ;
#354 = AXIS2_PLACEMENT_3D ( 'NONE', #263, #99, #288 ) ;
#355 = MECHANICAL_DESIGN_GEOMETRIC_PRESENTATION_REPRESENTATION (  '', ( #304 ), #14 ) ;
#356 = FILL_AREA_STYLE_COLOUR ( '', #367 ) ;
#357 = LINE ( 'NONE', #301, #319 ) ;
#358 = DIRECTION ( 'NONE',  ( 0.000000000000000000, 0.000000000000000000, 1.000000000000000000 ) ) ;
#359 = AXIS2_PLACEMENT_3D ( 'NONE', #168, #9, #175 ) ;
#360 = AXIS2_PLACEMENT_3D ( 'NONE', #167, #109, #332 ) ;
#361 = EDGE_CURVE ( 'NONE', #322, #36, #195, .T. ) ;
#362 = ADVANCED_BREP_SHAPE_REPRESENTATION ( 'RD179102-RevA', ( #28, #76 ), #11 ) ;
#363 = CARTESIAN_POINT ( 'NONE',  ( -9.327021538059252492, 0.000000000000000000, 0.000000000000000000 ) ) ;
#364 = CARTESIAN_POINT ( 'NONE',  ( 7.050000000000002487, 0.000000000000000000, 5.250000000000000888 ) ) ;
#365 = DIRECTION ( 'NONE',  ( -1.000000000000000000, -0.000000000000000000, -0.000000000000000000 ) ) ;
#366 = VECTOR ( 'NONE', #66, 1000.000000000000000 ) ;
#367 = COLOUR_RGB ( '',0.5294117647058823595, 0.5490196078431373028, 0.5490196078431373028 ) ;
#368 = CYLINDRICAL_SURFACE ( 'NONE', #32, 14.30000000000000071 ) ;
ENDSEC;
END-ISO-10303-21;
