ISO-10303-21;
HEADER;
/* Generated by software containing ST-Developer
 * from STEP Tools, Inc. (www.steptools.com) 
 */

FILE_DESCRIPTION(
/* description */ (''),
/* implementation_level */ '2;1');

FILE_NAME(
/* name */ 'C:/Users/Augustin Chauveau/Desktop/rotulepasfrais\X\E9e.st
ep',
/* time_stamp */ '2021-12-22T21:04:13+01:00',
/* author */ (''),
/* organization */ (''),
/* preprocessor_version */ 'ST-DEVELOPER v18.1',
/* originating_system */ 'Autodesk Translation Framework v10.10.0.1391',

/* authorisation */ '');

FILE_SCHEMA (('AUTOMOTIVE_DESIGN { 1 0 10303 214 3 1 1 }'));
ENDSEC;

DATA;
#10=MECHANICAL_DESIGN_GEOMETRIC_PRESENTATION_REPRESENTATION('',(#13),#269);
#11=SHAPE_REPRESENTATION_RELATIONSHIP('SRR','None',#276,#12);
#12=ADVANCED_BREP_SHAPE_REPRESENTATION('',(#14),#268);
#13=STYLED_ITEM('',(#285),#14);
#14=MANIFOLD_SOLID_BREP('Corps1',#137);
#15=LINE('',#241,#17);
#16=LINE('',#253,#18);
#17=VECTOR('',#193,5.10000000000002);
#18=VECTOR('',#208,22.5);
#19=CYLINDRICAL_SURFACE('',#158,5.10000000000002);
#20=CYLINDRICAL_SURFACE('',#165,22.5);
#21=TOROIDAL_SURFACE('',#154,5.40000000000002,0.3);
#22=TOROIDAL_SURFACE('',#161,22.2,0.3);
#23=TOROIDAL_SURFACE('',#168,5.40000000000002,0.3);
#24=TOROIDAL_SURFACE('',#173,19.,3.5);
#25=FACE_BOUND('',#36,.T.);
#26=FACE_BOUND('',#43,.T.);
#27=FACE_OUTER_BOUND('',#35,.T.);
#28=FACE_OUTER_BOUND('',#37,.T.);
#29=FACE_OUTER_BOUND('',#38,.T.);
#30=FACE_OUTER_BOUND('',#39,.T.);
#31=FACE_OUTER_BOUND('',#40,.T.);
#32=FACE_OUTER_BOUND('',#41,.T.);
#33=FACE_OUTER_BOUND('',#42,.T.);
#34=FACE_OUTER_BOUND('',#44,.T.);
#35=EDGE_LOOP('',(#91));
#36=EDGE_LOOP('',(#92));
#37=EDGE_LOOP('',(#93,#94,#95,#96,#97));
#38=EDGE_LOOP('',(#98,#99,#100,#101,#102,#103));
#39=EDGE_LOOP('',(#104,#105,#106,#107,#108));
#40=EDGE_LOOP('',(#109,#110,#111,#112,#113,#114));
#41=EDGE_LOOP('',(#115,#116,#117,#118,#119));
#42=EDGE_LOOP('',(#120));
#43=EDGE_LOOP('',(#121));
#44=EDGE_LOOP('',(#122,#123,#124,#125,#126));
#45=CIRCLE('',#152,22.2);
#46=CIRCLE('',#153,5.40000000000002);
#47=CIRCLE('',#155,0.3);
#48=CIRCLE('',#156,5.10000000000002);
#49=CIRCLE('',#157,5.10000000000002);
#50=CIRCLE('',#159,5.10000000000002);
#51=CIRCLE('',#160,5.10000000000002);
#52=CIRCLE('',#162,0.3);
#53=CIRCLE('',#163,22.5);
#54=CIRCLE('',#164,22.5);
#55=CIRCLE('',#166,22.5);
#56=CIRCLE('',#167,22.5);
#57=CIRCLE('',#169,0.3);
#58=CIRCLE('',#170,5.40000000000002);
#59=CIRCLE('',#172,19.);
#60=CIRCLE('',#174,3.5);
#61=VERTEX_POINT('',#229);
#62=VERTEX_POINT('',#231);
#63=VERTEX_POINT('',#234);
#64=VERTEX_POINT('',#236);
#65=VERTEX_POINT('',#240);
#66=VERTEX_POINT('',#242);
#67=VERTEX_POINT('',#246);
#68=VERTEX_POINT('',#248);
#69=VERTEX_POINT('',#252);
#70=VERTEX_POINT('',#254);
#71=VERTEX_POINT('',#258);
#72=VERTEX_POINT('',#262);
#73=EDGE_CURVE('',#61,#61,#45,.T.);
#74=EDGE_CURVE('',#62,#62,#46,.T.);
#75=EDGE_CURVE('',#62,#63,#47,.T.);
#76=EDGE_CURVE('',#64,#63,#48,.T.);
#77=EDGE_CURVE('',#63,#64,#49,.T.);
#78=EDGE_CURVE('',#64,#65,#15,.T.);
#79=EDGE_CURVE('',#65,#66,#50,.T.);
#80=EDGE_CURVE('',#66,#65,#51,.T.);
#81=EDGE_CURVE('',#61,#67,#52,.T.);
#82=EDGE_CURVE('',#68,#67,#53,.T.);
#83=EDGE_CURVE('',#67,#68,#54,.T.);
#84=EDGE_CURVE('',#68,#69,#16,.T.);
#85=EDGE_CURVE('',#69,#70,#55,.T.);
#86=EDGE_CURVE('',#70,#69,#56,.T.);
#87=EDGE_CURVE('',#66,#71,#57,.T.);
#88=EDGE_CURVE('',#71,#71,#58,.T.);
#89=EDGE_CURVE('',#72,#72,#59,.T.);
#90=EDGE_CURVE('',#70,#72,#60,.T.);
#91=ORIENTED_EDGE('',*,*,#73,.T.);
#92=ORIENTED_EDGE('',*,*,#74,.T.);
#93=ORIENTED_EDGE('',*,*,#74,.F.);
#94=ORIENTED_EDGE('',*,*,#75,.T.);
#95=ORIENTED_EDGE('',*,*,#76,.F.);
#96=ORIENTED_EDGE('',*,*,#77,.F.);
#97=ORIENTED_EDGE('',*,*,#75,.F.);
#98=ORIENTED_EDGE('',*,*,#76,.T.);
#99=ORIENTED_EDGE('',*,*,#77,.T.);
#100=ORIENTED_EDGE('',*,*,#78,.T.);
#101=ORIENTED_EDGE('',*,*,#79,.T.);
#102=ORIENTED_EDGE('',*,*,#80,.T.);
#103=ORIENTED_EDGE('',*,*,#78,.F.);
#104=ORIENTED_EDGE('',*,*,#73,.F.);
#105=ORIENTED_EDGE('',*,*,#81,.T.);
#106=ORIENTED_EDGE('',*,*,#82,.F.);
#107=ORIENTED_EDGE('',*,*,#83,.F.);
#108=ORIENTED_EDGE('',*,*,#81,.F.);
#109=ORIENTED_EDGE('',*,*,#82,.T.);
#110=ORIENTED_EDGE('',*,*,#83,.T.);
#111=ORIENTED_EDGE('',*,*,#84,.T.);
#112=ORIENTED_EDGE('',*,*,#85,.T.);
#113=ORIENTED_EDGE('',*,*,#86,.T.);
#114=ORIENTED_EDGE('',*,*,#84,.F.);
#115=ORIENTED_EDGE('',*,*,#79,.F.);
#116=ORIENTED_EDGE('',*,*,#80,.F.);
#117=ORIENTED_EDGE('',*,*,#87,.T.);
#118=ORIENTED_EDGE('',*,*,#88,.F.);
#119=ORIENTED_EDGE('',*,*,#87,.F.);
#120=ORIENTED_EDGE('',*,*,#89,.T.);
#121=ORIENTED_EDGE('',*,*,#88,.T.);
#122=ORIENTED_EDGE('',*,*,#85,.F.);
#123=ORIENTED_EDGE('',*,*,#86,.F.);
#124=ORIENTED_EDGE('',*,*,#90,.T.);
#125=ORIENTED_EDGE('',*,*,#89,.F.);
#126=ORIENTED_EDGE('',*,*,#90,.F.);
#127=PLANE('',#151);
#128=PLANE('',#171);
#129=ADVANCED_FACE('',(#27,#25),#127,.F.);
#130=ADVANCED_FACE('',(#28),#21,.T.);
#131=ADVANCED_FACE('',(#29),#19,.F.);
#132=ADVANCED_FACE('',(#30),#22,.T.);
#133=ADVANCED_FACE('',(#31),#20,.T.);
#134=ADVANCED_FACE('',(#32),#23,.T.);
#135=ADVANCED_FACE('',(#33,#26),#128,.T.);
#136=ADVANCED_FACE('',(#34),#24,.T.);
#137=CLOSED_SHELL('',(#129,#130,#131,#132,#133,#134,#135,#136));
#138=DERIVED_UNIT_ELEMENT(#140,1.);
#139=DERIVED_UNIT_ELEMENT(#271,-3.);
#140=(
MASS_UNIT()
NAMED_UNIT(*)
SI_UNIT(.KILO.,.GRAM.)
);
#141=DERIVED_UNIT((#138,#139));
#142=MEASURE_REPRESENTATION_ITEM('density measure',
POSITIVE_RATIO_MEASURE(7850.),#141);
#143=PROPERTY_DEFINITION_REPRESENTATION(#148,#145);
#144=PROPERTY_DEFINITION_REPRESENTATION(#149,#146);
#145=REPRESENTATION('material name',(#147),#268);
#146=REPRESENTATION('density',(#142),#268);
#147=DESCRIPTIVE_REPRESENTATION_ITEM('Acier','Acier');
#148=PROPERTY_DEFINITION('material property','material name',#278);
#149=PROPERTY_DEFINITION('material property','density of part',#278);
#150=AXIS2_PLACEMENT_3D('placement',#227,#175,#176);
#151=AXIS2_PLACEMENT_3D('',#228,#177,#178);
#152=AXIS2_PLACEMENT_3D('',#230,#179,#180);
#153=AXIS2_PLACEMENT_3D('',#232,#181,#182);
#154=AXIS2_PLACEMENT_3D('',#233,#183,#184);
#155=AXIS2_PLACEMENT_3D('',#235,#185,#186);
#156=AXIS2_PLACEMENT_3D('',#237,#187,#188);
#157=AXIS2_PLACEMENT_3D('',#238,#189,#190);
#158=AXIS2_PLACEMENT_3D('',#239,#191,#192);
#159=AXIS2_PLACEMENT_3D('',#243,#194,#195);
#160=AXIS2_PLACEMENT_3D('',#244,#196,#197);
#161=AXIS2_PLACEMENT_3D('',#245,#198,#199);
#162=AXIS2_PLACEMENT_3D('',#247,#200,#201);
#163=AXIS2_PLACEMENT_3D('',#249,#202,#203);
#164=AXIS2_PLACEMENT_3D('',#250,#204,#205);
#165=AXIS2_PLACEMENT_3D('',#251,#206,#207);
#166=AXIS2_PLACEMENT_3D('',#255,#209,#210);
#167=AXIS2_PLACEMENT_3D('',#256,#211,#212);
#168=AXIS2_PLACEMENT_3D('',#257,#213,#214);
#169=AXIS2_PLACEMENT_3D('',#259,#215,#216);
#170=AXIS2_PLACEMENT_3D('',#260,#217,#218);
#171=AXIS2_PLACEMENT_3D('',#261,#219,#220);
#172=AXIS2_PLACEMENT_3D('',#263,#221,#222);
#173=AXIS2_PLACEMENT_3D('',#264,#223,#224);
#174=AXIS2_PLACEMENT_3D('',#265,#225,#226);
#175=DIRECTION('axis',(0.,0.,1.));
#176=DIRECTION('refdir',(1.,0.,0.));
#177=DIRECTION('center_axis',(0.,1.,0.));
#178=DIRECTION('ref_axis',(1.,0.,0.));
#179=DIRECTION('center_axis',(0.,-1.,0.));
#180=DIRECTION('ref_axis',(1.,0.,0.));
#181=DIRECTION('center_axis',(0.,1.,0.));
#182=DIRECTION('ref_axis',(1.,0.,0.));
#183=DIRECTION('center_axis',(0.,1.,0.));
#184=DIRECTION('ref_axis',(0.,0.,-1.));
#185=DIRECTION('center_axis',(1.,0.,0.));
#186=DIRECTION('ref_axis',(0.,0.,1.));
#187=DIRECTION('center_axis',(0.,-1.,0.));
#188=DIRECTION('ref_axis',(1.,0.,0.));
#189=DIRECTION('center_axis',(0.,-1.,0.));
#190=DIRECTION('ref_axis',(1.,0.,0.));
#191=DIRECTION('center_axis',(0.,1.,0.));
#192=DIRECTION('ref_axis',(1.,0.,0.));
#193=DIRECTION('',(0.,1.,0.));
#194=DIRECTION('center_axis',(0.,1.,0.));
#195=DIRECTION('ref_axis',(1.,0.,0.));
#196=DIRECTION('center_axis',(0.,1.,0.));
#197=DIRECTION('ref_axis',(1.,0.,0.));
#198=DIRECTION('center_axis',(0.,-1.,0.));
#199=DIRECTION('ref_axis',(0.,0.,1.));
#200=DIRECTION('center_axis',(1.,0.,0.));
#201=DIRECTION('ref_axis',(0.,0.,-1.));
#202=DIRECTION('center_axis',(0.,1.,0.));
#203=DIRECTION('ref_axis',(1.,0.,0.));
#204=DIRECTION('center_axis',(0.,1.,0.));
#205=DIRECTION('ref_axis',(1.,0.,0.));
#206=DIRECTION('center_axis',(0.,1.,0.));
#207=DIRECTION('ref_axis',(1.,0.,0.));
#208=DIRECTION('',(0.,1.,0.));
#209=DIRECTION('center_axis',(0.,-1.,0.));
#210=DIRECTION('ref_axis',(1.,0.,0.));
#211=DIRECTION('center_axis',(0.,-1.,0.));
#212=DIRECTION('ref_axis',(1.,0.,0.));
#213=DIRECTION('center_axis',(0.,1.,0.));
#214=DIRECTION('ref_axis',(0.,0.,-1.));
#215=DIRECTION('center_axis',(1.,0.,0.));
#216=DIRECTION('ref_axis',(0.,0.,1.));
#217=DIRECTION('center_axis',(0.,-1.,0.));
#218=DIRECTION('ref_axis',(1.,0.,0.));
#219=DIRECTION('center_axis',(0.,1.,0.));
#220=DIRECTION('ref_axis',(1.,0.,0.));
#221=DIRECTION('center_axis',(0.,1.,0.));
#222=DIRECTION('ref_axis',(1.,0.,0.));
#223=DIRECTION('center_axis',(0.,-1.,0.));
#224=DIRECTION('ref_axis',(0.,0.,1.));
#225=DIRECTION('center_axis',(1.,0.,0.));
#226=DIRECTION('ref_axis',(0.,0.,-1.));
#227=CARTESIAN_POINT('',(0.,0.,0.));
#228=CARTESIAN_POINT('Origin',(183.351998237459,39.,119.588147050099));
#229=CARTESIAN_POINT('',(183.351998237459,39.,97.3881470500991));
#230=CARTESIAN_POINT('Origin',(183.351998237459,39.,119.588147050099));
#231=CARTESIAN_POINT('',(183.351998237459,39.,124.988147050099));
#232=CARTESIAN_POINT('Origin',(183.351998237459,39.,119.588147050099));
#233=CARTESIAN_POINT('Origin',(183.351998237459,39.3,119.588147050099));
#234=CARTESIAN_POINT('',(183.351998237459,39.3,124.688147050099));
#235=CARTESIAN_POINT('Origin',(183.351998237459,39.3,124.988147050099));
#236=CARTESIAN_POINT('',(178.251998237459,39.3,119.588147050099));
#237=CARTESIAN_POINT('Origin',(183.351998237459,39.3,119.588147050099));
#238=CARTESIAN_POINT('Origin',(183.351998237459,39.3,119.588147050099));
#239=CARTESIAN_POINT('Origin',(183.351998237459,49.,119.588147050099));
#240=CARTESIAN_POINT('',(178.251998237459,48.7,119.588147050099));
#241=CARTESIAN_POINT('',(178.251998237459,49.,119.588147050099));
#242=CARTESIAN_POINT('',(183.351998237459,48.7,124.688147050099));
#243=CARTESIAN_POINT('Origin',(183.351998237459,48.7,119.588147050099));
#244=CARTESIAN_POINT('Origin',(183.351998237459,48.7,119.588147050099));
#245=CARTESIAN_POINT('Origin',(183.351998237459,39.3,119.588147050099));
#246=CARTESIAN_POINT('',(183.351998237459,39.3,97.0881470500991));
#247=CARTESIAN_POINT('Origin',(183.351998237459,39.3,97.3881470500991));
#248=CARTESIAN_POINT('',(160.851998237459,39.3,119.588147050099));
#249=CARTESIAN_POINT('Origin',(183.351998237459,39.3,119.588147050099));
#250=CARTESIAN_POINT('Origin',(183.351998237459,39.3,119.588147050099));
#251=CARTESIAN_POINT('Origin',(183.351998237459,49.,119.588147050099));
#252=CARTESIAN_POINT('',(160.851998237459,45.5,119.588147050099));
#253=CARTESIAN_POINT('',(160.851998237459,49.,119.588147050099));
#254=CARTESIAN_POINT('',(183.351998237459,45.5,97.0881470500991));
#255=CARTESIAN_POINT('Origin',(183.351998237459,45.5,119.588147050099));
#256=CARTESIAN_POINT('Origin',(183.351998237459,45.5,119.588147050099));
#257=CARTESIAN_POINT('Origin',(183.351998237459,48.7,119.588147050099));
#258=CARTESIAN_POINT('',(183.351998237459,49.,124.988147050099));
#259=CARTESIAN_POINT('Origin',(183.351998237459,48.7,124.988147050099));
#260=CARTESIAN_POINT('Origin',(183.351998237459,49.,119.588147050099));
#261=CARTESIAN_POINT('Origin',(183.351998237459,49.,119.588147050099));
#262=CARTESIAN_POINT('',(183.351998237459,49.,100.588147050099));
#263=CARTESIAN_POINT('Origin',(183.351998237459,49.,119.588147050099));
#264=CARTESIAN_POINT('Origin',(183.351998237459,45.5,119.588147050099));
#265=CARTESIAN_POINT('Origin',(183.351998237459,45.5,100.588147050099));
#266=UNCERTAINTY_MEASURE_WITH_UNIT(LENGTH_MEASURE(0.01),#270,
'DISTANCE_ACCURACY_VALUE',
'Maximum model space distance between geometric entities at asserted c
onnectivities');
#267=UNCERTAINTY_MEASURE_WITH_UNIT(LENGTH_MEASURE(0.01),#270,
'DISTANCE_ACCURACY_VALUE',
'Maximum model space distance between geometric entities at asserted c
onnectivities');
#268=(
GEOMETRIC_REPRESENTATION_CONTEXT(3)
GLOBAL_UNCERTAINTY_ASSIGNED_CONTEXT((#266))
GLOBAL_UNIT_ASSIGNED_CONTEXT((#270,#272,#273))
REPRESENTATION_CONTEXT('','3D')
);
#269=(
GEOMETRIC_REPRESENTATION_CONTEXT(3)
GLOBAL_UNCERTAINTY_ASSIGNED_CONTEXT((#267))
GLOBAL_UNIT_ASSIGNED_CONTEXT((#270,#272,#273))
REPRESENTATION_CONTEXT('','3D')
);
#270=(
LENGTH_UNIT()
NAMED_UNIT(*)
SI_UNIT(.MILLI.,.METRE.)
);
#271=(
LENGTH_UNIT()
NAMED_UNIT(*)
SI_UNIT($,.METRE.)
);
#272=(
NAMED_UNIT(*)
PLANE_ANGLE_UNIT()
SI_UNIT($,.RADIAN.)
);
#273=(
NAMED_UNIT(*)
SI_UNIT($,.STERADIAN.)
SOLID_ANGLE_UNIT()
);
#274=SHAPE_DEFINITION_REPRESENTATION(#275,#276);
#275=PRODUCT_DEFINITION_SHAPE('',$,#278);
#276=SHAPE_REPRESENTATION('',(#150),#268);
#277=PRODUCT_DEFINITION_CONTEXT('part definition',#282,'design');
#278=PRODUCT_DEFINITION('FusionComponent','FusionComponent',#279,#277);
#279=PRODUCT_DEFINITION_FORMATION('',$,#284);
#280=PRODUCT_RELATED_PRODUCT_CATEGORY('FusionComponent',
'FusionComponent',(#284));
#281=APPLICATION_PROTOCOL_DEFINITION('international standard',
'automotive_design',2009,#282);
#282=APPLICATION_CONTEXT(
'Core Data for Automotive Mechanical Design Process');
#283=PRODUCT_CONTEXT('part definition',#282,'mechanical');
#284=PRODUCT('FusionComponent','FusionComponent',$,(#283));
#285=PRESENTATION_STYLE_ASSIGNMENT((#286));
#286=SURFACE_STYLE_USAGE(.BOTH.,#287);
#287=SURFACE_SIDE_STYLE('',(#288));
#288=SURFACE_STYLE_FILL_AREA(#289);
#289=FILL_AREA_STYLE('Acier - Satin\X\E9',(#290));
#290=FILL_AREA_STYLE_COLOUR('Acier - Satin\X\E9',#291);
#291=COLOUR_RGB('Acier - Satin\X\E9',0.627450980392157,0.627450980392157,
0.627450980392157);
ENDSEC;
END-ISO-10303-21;
