ISO-10303-21;
HEADER;
FILE_DESCRIPTION (( 'STEP AP214' ),
    '1' );
FILE_NAME ('MONTANT BTC STD.STEP',
    '2021-12-06T07:59:52',
    ( '' ),
    ( '' ),
    'SwSTEP 2.0',
    'SolidWorks 2020',
    '' );
FILE_SCHEMA (( 'AUTOMOTIVE_DESIGN' ));
ENDSEC;

DATA;
#1 = PLANE ( 'NONE',  #209 ) ;
#2 = COLOUR_RGB ( '',0.7529411764705882248, 0.7529411764705882248, 0.7529411764705882248 ) ;
#3 = FACE_OUTER_BOUND ( 'NONE', #189, .T. ) ;
#4 = ORIENTED_EDGE ( 'NONE', *, *, #193, .F. ) ;
#5 = ORIENTED_EDGE ( 'NONE', *, *, #76, .T. ) ;
#6 = VECTOR ( 'NONE', #247, 1000.000000000000000 ) ;
#7 =( NAMED_UNIT ( * ) PLANE_ANGLE_UNIT ( ) SI_UNIT ( $, .RADIAN. ) );
#8 = EDGE_LOOP ( 'NONE', ( #89, #212, #265, #159 ) ) ;
#9 = VERTEX_POINT ( 'NONE', #31 ) ;
#10 = ORIENTED_EDGE ( 'NONE', *, *, #140, .F. ) ;
#11 = VECTOR ( 'NONE', #205, 1000.000000000000000 ) ;
#12 = SURFACE_STYLE_USAGE ( .BOTH. , #229 ) ;
#13 = EDGE_CURVE ( 'NONE', #165, #94, #72, .T. ) ;
#14 = CARTESIAN_POINT ( 'NONE',  ( -100.0000000000000000, -74.99999999999998579, 0.000000000000000000 ) ) ;
#15 = CARTESIAN_POINT ( 'NONE',  ( 100.0000000000000000, -74.99999999999998579, 20.00000000000000000 ) ) ;
#16 = CARTESIAN_POINT ( 'NONE',  ( 0.000000000000000000, 0.000000000000000000, 0.000000000000000000 ) ) ;
#17 = ORIENTED_EDGE ( 'NONE', *, *, #135, .T. ) ;
#18 = UNCERTAINTY_MEASURE_WITH_UNIT (LENGTH_MEASURE( 1.000000000000000082E-05 ), #68, 'distance_accuracy_value', 'NONE');
#19 = CARTESIAN_POINT ( 'NONE',  ( 100.0000000000000000, 69.99999999999995737, 15.00000000000000000 ) ) ;
#20 = CARTESIAN_POINT ( 'NONE',  ( -100.0000000000000000, 69.99999999999995737, 15.00000000000000000 ) ) ;
#21 = APPLICATION_PROTOCOL_DEFINITION ( 'draft international standard', 'automotive_design', 1998, #218 ) ;
#22 = DIRECTION ( 'NONE',  ( 0.000000000000000000, 1.000000000000000000, 0.000000000000000000 ) ) ;
#23 = EDGE_LOOP ( 'NONE', ( #123, #47, #204, #226 ) ) ;
#24 =( NAMED_UNIT ( * ) PLANE_ANGLE_UNIT ( ) SI_UNIT ( $, .RADIAN. ) );
#25 = ORIENTED_EDGE ( 'NONE', *, *, #239, .F. ) ;
#26 = LINE ( 'NONE', #145, #6 ) ;
#27 = EDGE_LOOP ( 'NONE', ( #166, #256, #52, #210 ) ) ;
#28 = AXIS2_PLACEMENT_3D ( 'NONE', #40, #249, #87 ) ;
#29 = ORIENTED_EDGE ( 'NONE', *, *, #48, .F. ) ;
#30 = PRODUCT_CONTEXT ( 'NONE', #218, 'mechanical' ) ;
#31 = CARTESIAN_POINT ( 'NONE',  ( -100.0000000000000000, -69.99999999999991473, 14.99999999999998224 ) ) ;
#32 = PLANE ( 'NONE',  #51 ) ;
#33 = VECTOR ( 'NONE', #124, 1000.000000000000000 ) ;
#34 = LINE ( 'NONE', #81, #264 ) ;
#35 = DIRECTION ( 'NONE',  ( -0.000000000000000000, -0.000000000000000000, -1.000000000000000000 ) ) ;
#36 = VECTOR ( 'NONE', #168, 1000.000000000000000 ) ;
#37 = LINE ( 'NONE', #104, #62 ) ;
#38 = FACE_OUTER_BOUND ( 'NONE', #90, .T. ) ;
#39 = FILL_AREA_STYLE_COLOUR ( '', #2 ) ;
#40 = CARTESIAN_POINT ( 'NONE',  ( -100.0000000000000000, 74.99999999999998579, 20.00000000000000000 ) ) ;
#41 = DIRECTION ( 'NONE',  ( 0.000000000000000000, -0.000000000000000000, 1.000000000000000000 ) ) ;
#42 = PRODUCT ( 'MONTANT BTC STD', 'MONTANT BTC STD', '', ( #30 ) ) ;
#43 = VECTOR ( 'NONE', #257, 1000.000000000000000 ) ;
#44 = COLOUR_RGB ( '',0.7529411764705882248, 0.7529411764705882248, 0.7529411764705882248 ) ;
#45 = DIRECTION ( 'NONE',  ( -0.000000000000000000, 1.000000000000000000, -0.000000000000000000 ) ) ;
#46 = PLANE ( 'NONE',  #28 ) ;
#47 = ORIENTED_EDGE ( 'NONE', *, *, #13, .F. ) ;
#48 = EDGE_CURVE ( 'NONE', #128, #94, #66, .T. ) ;
#49 = VERTEX_POINT ( 'NONE', #225 ) ;
#50 = ORIENTED_EDGE ( 'NONE', *, *, #158, .F. ) ;
#51 = AXIS2_PLACEMENT_3D ( 'NONE', #20, #230, #54 ) ;
#52 = ORIENTED_EDGE ( 'NONE', *, *, #231, .F. ) ;
#53 =( LENGTH_UNIT ( ) NAMED_UNIT ( * ) SI_UNIT ( .MILLI., .METRE. ) );
#54 = DIRECTION ( 'NONE',  ( 0.000000000000000000, 1.000000000000000000, 1.239088197126292050E-16 ) ) ;
#55 = CARTESIAN_POINT ( 'NONE',  ( -100.0000000000000000, 74.99999999999998579, 20.00000000000000000 ) ) ;
#56 = AXIS2_PLACEMENT_3D ( 'NONE', #219, #120, #268 ) ;
#57 = CARTESIAN_POINT ( 'NONE',  ( -100.0000000000000000, -74.99999999999998579, 20.00000000000000000 ) ) ;
#58 = DIRECTION ( 'NONE',  ( 1.000000000000000000, 0.000000000000000000, 0.000000000000000000 ) ) ;
#59 = EDGE_CURVE ( 'NONE', #115, #206, #147, .T. ) ;
#60 = ORIENTED_EDGE ( 'NONE', *, *, #175, .T. ) ;
#61 = CARTESIAN_POINT ( 'NONE',  ( 100.0000000000000000, -69.99999999999991473, 14.99999999999998224 ) ) ;
#62 = VECTOR ( 'NONE', #237, 1000.000000000000000 ) ;
#63 = PRESENTATION_LAYER_ASSIGNMENT (  '', '', ( #174 ) ) ;
#64 = LINE ( 'NONE', #106, #137 ) ;
#65 = FILL_AREA_STYLE_COLOUR ( '', #44 ) ;
#66 = LINE ( 'NONE', #152, #238 ) ;
#67 = EDGE_CURVE ( 'NONE', #9, #128, #184, .T. ) ;
#68 =( LENGTH_UNIT ( ) NAMED_UNIT ( * ) SI_UNIT ( .MILLI., .METRE. ) );
#69 = ORIENTED_EDGE ( 'NONE', *, *, #99, .F. ) ;
#70 = ORIENTED_EDGE ( 'NONE', *, *, #160, .F. ) ;
#71 = EDGE_CURVE ( 'NONE', #149, #115, #207, .T. ) ;
#72 = LINE ( 'NONE', #248, #36 ) ;
#73 = STYLED_ITEM ( 'NONE', ( #183 ), #233 ) ;
#74 = ORIENTED_EDGE ( 'NONE', *, *, #231, .T. ) ;
#75 = DIRECTION ( 'NONE',  ( -0.000000000000000000, 0.000000000000000000, 1.000000000000000000 ) ) ;
#76 = EDGE_CURVE ( 'NONE', #132, #133, #122, .T. ) ;
#77 = CARTESIAN_POINT ( 'NONE',  ( -100.0000000000000000, 69.99999999999995737, 15.00000000000000000 ) ) ;
#78 = PLANE ( 'NONE',  #56 ) ;
#79 = EDGE_CURVE ( 'NONE', #149, #128, #169, .T. ) ;
#80 = VECTOR ( 'NONE', #201, 1000.000000000000114 ) ;
#81 = CARTESIAN_POINT ( 'NONE',  ( -100.0000000000000000, -74.99999999999998579, 0.000000000000000000 ) ) ;
#82 = LINE ( 'NONE', #171, #176 ) ;
#83 = APPLICATION_CONTEXT ( 'automotive_design' ) ;
#84 = ADVANCED_FACE ( 'NONE', ( #196 ), #199, .F. ) ;
#85 = CARTESIAN_POINT ( 'NONE',  ( 100.0000000000000000, 75.00000000000001421, 0.000000000000000000 ) ) ;
#86 = VECTOR ( 'NONE', #178, 1000.000000000000000 ) ;
#87 = DIRECTION ( 'NONE',  ( 0.000000000000000000, 0.7071067811865497932, 0.7071067811865453523 ) ) ;
#88 = FACE_OUTER_BOUND ( 'NONE', #130, .T. ) ;
#89 = ORIENTED_EDGE ( 'NONE', *, *, #160, .T. ) ;
#90 = EDGE_LOOP ( 'NONE', ( #25, #69, #29, #186, #164, #188 ) ) ;
#91 = ORIENTED_EDGE ( 'NONE', *, *, #13, .T. ) ;
#92 = VERTEX_POINT ( 'NONE', #142 ) ;
#93 =( NAMED_UNIT ( * ) PLANE_ANGLE_UNIT ( ) SI_UNIT ( $, .RADIAN. ) );
#94 = VERTEX_POINT ( 'NONE', #19 ) ;
#95 = MECHANICAL_DESIGN_GEOMETRIC_PRESENTATION_REPRESENTATION (  '', ( #174 ), #243 ) ;
#96 = CARTESIAN_POINT ( 'NONE',  ( 100.0000000000000000, -75.00000000000001421, 20.00000000000000000 ) ) ;
#97 = PRESENTATION_STYLE_ASSIGNMENT (( #12 ) ) ;
#98 = CARTESIAN_POINT ( 'NONE',  ( -100.0000000000000142, 75.00000000000001421, 0.000000000000000000 ) ) ;
#99 = EDGE_CURVE ( 'NONE', #94, #132, #173, .T. ) ;
#100 = DIRECTION ( 'NONE',  ( 1.000000000000000000, 0.000000000000000000, 0.000000000000000000 ) ) ;
#101 = VECTOR ( 'NONE', #129, 1000.000000000000000 ) ;
#102 =( GEOMETRIC_REPRESENTATION_CONTEXT ( 3 ) GLOBAL_UNCERTAINTY_ASSIGNED_CONTEXT ( ( #18 ) ) GLOBAL_UNIT_ASSIGNED_CONTEXT ( ( #68, #7, #108 ) ) REPRESENTATION_CONTEXT ( 'NONE', 'WORKASPACE' ) );
#103 = DIRECTION ( 'NONE',  ( -0.000000000000000000, 0.7071067811865497932, 0.7071067811865453523 ) ) ;
#104 = CARTESIAN_POINT ( 'NONE',  ( -100.0000000000000142, 75.00000000000001421, 20.00000000000000000 ) ) ;
#105 = FILL_AREA_STYLE ('',( #39 ) ) ;
#106 = CARTESIAN_POINT ( 'NONE',  ( 100.0000000000000000, 75.00000000000001421, 20.00000000000000000 ) ) ;
#107 = AXIS2_PLACEMENT_3D ( 'NONE', #187, #125, #182 ) ;
#108 =( NAMED_UNIT ( * ) SI_UNIT ( $, .STERADIAN. ) SOLID_ANGLE_UNIT ( ) );
#109 = ORIENTED_EDGE ( 'NONE', *, *, #158, .T. ) ;
#110 = ORIENTED_EDGE ( 'NONE', *, *, #255, .F. ) ;
#111 = LINE ( 'NONE', #144, #11 ) ;
#112 = VECTOR ( 'NONE', #232, 1000.000000000000000 ) ;
#113 = ORIENTED_EDGE ( 'NONE', *, *, #255, .T. ) ;
#114 = EDGE_LOOP ( 'NONE', ( #60, #113, #17, #109, #250, #74 ) ) ;
#115 = VERTEX_POINT ( 'NONE', #217 ) ;
#116 = ADVANCED_FACE ( 'NONE', ( #38 ), #78, .F. ) ;
#117 = APPLICATION_PROTOCOL_DEFINITION ( 'draft international standard', 'automotive_design', 1998, #83 ) ;
#118 = DIRECTION ( 'NONE',  ( 0.000000000000000000, -0.000000000000000000, -1.000000000000000000 ) ) ;
#119 = PRODUCT_DEFINITION_FORMATION_WITH_SPECIFIED_SOURCE ( 'ANY', '', #42, .NOT_KNOWN. ) ;
#120 = DIRECTION ( 'NONE',  ( -1.000000000000000000, 0.000000000000000000, 0.000000000000000000 ) ) ;
#121 = PLANE ( 'NONE',  #131 ) ;
#122 = LINE ( 'NONE', #179, #191 ) ;
#123 = ORIENTED_EDGE ( 'NONE', *, *, #48, .T. ) ;
#124 = DIRECTION ( 'NONE',  ( -1.000000000000000000, -0.000000000000000000, -0.000000000000000000 ) ) ;
#125 = DIRECTION ( 'NONE',  ( 0.000000000000000000, -0.7071067811865416886, -0.7071067811865534569 ) ) ;
#126 = LINE ( 'NONE', #246, #80 ) ;
#127 =( NAMED_UNIT ( * ) SI_UNIT ( $, .STERADIAN. ) SOLID_ANGLE_UNIT ( ) );
#128 = VERTEX_POINT ( 'NONE', #138 ) ;
#129 = DIRECTION ( 'NONE',  ( 1.000000000000000000, -0.000000000000000000, -0.000000000000000000 ) ) ;
#130 = EDGE_LOOP ( 'NONE', ( #228, #167, #4, #180 ) ) ;
#131 = AXIS2_PLACEMENT_3D ( 'NONE', #215, #161, #192 ) ;
#132 = VERTEX_POINT ( 'NONE', #139 ) ;
#133 = VERTEX_POINT ( 'NONE', #55 ) ;
#134 = CARTESIAN_POINT ( 'NONE',  ( -100.0000000000000142, 75.00000000000001421, 20.00000000000000000 ) ) ;
#135 = EDGE_CURVE ( 'NONE', #133, #49, #37, .T. ) ;
#136 = FACE_OUTER_BOUND ( 'NONE', #27, .T. ) ;
#137 = VECTOR ( 'NONE', #222, 1000.000000000000000 ) ;
#138 = CARTESIAN_POINT ( 'NONE',  ( 100.0000000000000000, -69.99999999999991473, 14.99999999999998224 ) ) ;
#139 = CARTESIAN_POINT ( 'NONE',  ( 100.0000000000000000, 74.99999999999998579, 20.00000000000000000 ) ) ;
#140 = EDGE_CURVE ( 'NONE', #190, #115, #34, .T. ) ;
#141 = ADVANCED_FACE ( 'NONE', ( #194 ), #121, .F. ) ;
#142 = CARTESIAN_POINT ( 'NONE',  ( -100.0000000000000000, -74.99999999999998579, 20.00000000000000000 ) ) ;
#143 = AXIS2_PLACEMENT_3D ( 'NONE', #16, #75, #100 ) ;
#144 = CARTESIAN_POINT ( 'NONE',  ( -100.0000000000000000, -69.99999999999991473, 14.99999999999998224 ) ) ;
#145 = CARTESIAN_POINT ( 'NONE',  ( -100.0000000000000000, -74.99999999999998579, 20.00000000000000000 ) ) ;
#146 = FILL_AREA_STYLE ('',( #65 ) ) ;
#147 = LINE ( 'NONE', #150, #162 ) ;
#148 = DIRECTION ( 'NONE',  ( -0.000000000000000000, 1.000000000000000000, 1.239088197126292050E-16 ) ) ;
#149 = VERTEX_POINT ( 'NONE', #96 ) ;
#150 = CARTESIAN_POINT ( 'NONE',  ( 100.0000000000000000, 75.00000000000001421, 0.000000000000000000 ) ) ;
#151 = DIRECTION ( 'NONE',  ( 1.000000000000000000, 0.000000000000000000, 0.000000000000000000 ) ) ;
#152 = CARTESIAN_POINT ( 'NONE',  ( 100.0000000000000000, 69.99999999999995737, 15.00000000000000000 ) ) ;
#153 = SHAPE_DEFINITION_REPRESENTATION ( #258, #227 ) ;
#154 = PLANE ( 'NONE',  #197 ) ;
#155 = FACE_OUTER_BOUND ( 'NONE', #8, .T. ) ;
#156 = AXIS2_PLACEMENT_3D ( 'NONE', #195, #170, #151 ) ;
#157 = LINE ( 'NONE', #241, #33 ) ;
#158 = EDGE_CURVE ( 'NONE', #49, #190, #262, .T. ) ;
#159 = ORIENTED_EDGE ( 'NONE', *, *, #239, .T. ) ;
#160 = EDGE_CURVE ( 'NONE', #206, #49, #157, .T. ) ;
#161 = DIRECTION ( 'NONE',  ( 1.000000000000000000, 9.251858538542971581E-17, -0.000000000000000000 ) ) ;
#162 = VECTOR ( 'NONE', #45, 1000.000000000000000 ) ;
#163 = PLANE ( 'NONE',  #107 ) ;
#164 = ORIENTED_EDGE ( 'NONE', *, *, #71, .T. ) ;
#165 = VERTEX_POINT ( 'NONE', #77 ) ;
#166 = ORIENTED_EDGE ( 'NONE', *, *, #79, .T. ) ;
#167 = ORIENTED_EDGE ( 'NONE', *, *, #71, .F. ) ;
#168 = DIRECTION ( 'NONE',  ( 1.000000000000000000, -0.000000000000000000, -0.000000000000000000 ) ) ;
#169 = LINE ( 'NONE', #61, #43 ) ;
#170 = DIRECTION ( 'NONE',  ( 0.000000000000000000, 0.000000000000000000, 1.000000000000000000 ) ) ;
#171 = CARTESIAN_POINT ( 'NONE',  ( -100.0000000000000000, 69.99999999999995737, 15.00000000000000000 ) ) ;
#172 = VECTOR ( 'NONE', #103, 1000.000000000000114 ) ;
#173 = LINE ( 'NONE', #266, #172 ) ;
#174 = STYLED_ITEM ( 'NONE', ( #97 ), #227 ) ;
#175 = EDGE_CURVE ( 'NONE', #9, #165, #82, .T. ) ;
#176 = VECTOR ( 'NONE', #200, 1000.000000000000000 ) ;
#177 = EDGE_LOOP ( 'NONE', ( #251, #10, #50, #70 ) ) ;
#178 = DIRECTION ( 'NONE',  ( 9.251858538542971581E-17, -1.000000000000000000, 0.000000000000000000 ) ) ;
#179 = CARTESIAN_POINT ( 'NONE',  ( -100.0000000000000142, 75.00000000000001421, 20.00000000000000000 ) ) ;
#180 = ORIENTED_EDGE ( 'NONE', *, *, #267, .T. ) ;
#181 = ADVANCED_FACE ( 'NONE', ( #260 ), #32, .F. ) ;
#182 = DIRECTION ( 'NONE',  ( 0.000000000000000000, 0.7071067811865534569, -0.7071067811865416886 ) ) ;
#183 = PRESENTATION_STYLE_ASSIGNMENT (( #221 ) ) ;
#184 = LINE ( 'NONE', #223, #101 ) ;
#185 = ADVANCED_FACE ( 'NONE', ( #155 ), #154, .F. ) ;
#186 = ORIENTED_EDGE ( 'NONE', *, *, #79, .F. ) ;
#187 = CARTESIAN_POINT ( 'NONE',  ( -100.0000000000000000, -69.99999999999991473, 14.99999999999998224 ) ) ;
#188 = ORIENTED_EDGE ( 'NONE', *, *, #59, .T. ) ;
#189 = EDGE_LOOP ( 'NONE', ( #253, #5, #110, #91 ) ) ;
#190 = VERTEX_POINT ( 'NONE', #14 ) ;
#191 = VECTOR ( 'NONE', #216, 1000.000000000000000 ) ;
#192 = DIRECTION ( 'NONE',  ( -9.251858538542971581E-17, 1.000000000000000000, 0.000000000000000000 ) ) ;
#193 = EDGE_CURVE ( 'NONE', #92, #149, #235, .T. ) ;
#194 = FACE_OUTER_BOUND ( 'NONE', #114, .T. ) ;
#195 = CARTESIAN_POINT ( 'NONE',  ( 0.000000000000000000, 0.000000000000000000, 0.000000000000000000 ) ) ;
#196 = FACE_OUTER_BOUND ( 'NONE', #177, .T. ) ;
#197 = AXIS2_PLACEMENT_3D ( 'NONE', #134, #213, #118 ) ;
#198 = ADVANCED_FACE ( 'NONE', ( #136 ), #163, .F. ) ;
#199 = PLANE ( 'NONE',  #143 ) ;
#200 = DIRECTION ( 'NONE',  ( -0.000000000000000000, 1.000000000000000000, 1.239088197126292050E-16 ) ) ;
#201 = DIRECTION ( 'NONE',  ( -0.000000000000000000, 0.7071067811865497932, 0.7071067811865453523 ) ) ;
#202 = ADVANCED_FACE ( 'NONE', ( #88 ), #1, .F. ) ;
#203 = CARTESIAN_POINT ( 'NONE',  ( -100.0000000000000000, -74.99999999999998579, 20.00000000000000000 ) ) ;
#204 = ORIENTED_EDGE ( 'NONE', *, *, #175, .F. ) ;
#205 = DIRECTION ( 'NONE',  ( -0.000000000000000000, 0.7071067811865534569, -0.7071067811865416886 ) ) ;
#206 = VERTEX_POINT ( 'NONE', #85 ) ;
#207 = LINE ( 'NONE', #15, #261 ) ;
#208 = SURFACE_STYLE_FILL_AREA ( #105 ) ;
#209 = AXIS2_PLACEMENT_3D ( 'NONE', #203, #22, #41 ) ;
#210 = ORIENTED_EDGE ( 'NONE', *, *, #193, .T. ) ;
#211 = PRODUCT_RELATED_PRODUCT_CATEGORY ( 'part', '', ( #42 ) ) ;
#212 = ORIENTED_EDGE ( 'NONE', *, *, #135, .F. ) ;
#213 = DIRECTION ( 'NONE',  ( 0.000000000000000000, -1.000000000000000000, 0.000000000000000000 ) ) ;
#214 = MECHANICAL_DESIGN_GEOMETRIC_PRESENTATION_REPRESENTATION (  '', ( #73 ), #102 ) ;
#215 = CARTESIAN_POINT ( 'NONE',  ( -100.0000000000000142, 75.00000000000001421, 20.00000000000000000 ) ) ;
#216 = DIRECTION ( 'NONE',  ( -1.000000000000000000, -0.000000000000000000, -0.000000000000000000 ) ) ;
#217 = CARTESIAN_POINT ( 'NONE',  ( 100.0000000000000000, -74.99999999999998579, 0.000000000000000000 ) ) ;
#218 = APPLICATION_CONTEXT ( 'automotive_design' ) ;
#219 = CARTESIAN_POINT ( 'NONE',  ( 100.0000000000000000, 75.00000000000001421, 20.00000000000000000 ) ) ;
#220 = CLOSED_SHELL ( 'NONE', ( #116, #185, #141, #202, #84, #252, #181, #198 ) ) ;
#221 = SURFACE_STYLE_USAGE ( .BOTH. , #224 ) ;
#222 = DIRECTION ( 'NONE',  ( -0.000000000000000000, -0.000000000000000000, -1.000000000000000000 ) ) ;
#223 = CARTESIAN_POINT ( 'NONE',  ( -100.0000000000000000, -69.99999999999991473, 14.99999999999998224 ) ) ;
#224 = SURFACE_SIDE_STYLE ('',( #245 ) ) ;
#225 = CARTESIAN_POINT ( 'NONE',  ( -100.0000000000000142, 75.00000000000001421, 0.000000000000000000 ) ) ;
#226 = ORIENTED_EDGE ( 'NONE', *, *, #67, .T. ) ;
#227 = ADVANCED_BREP_SHAPE_REPRESENTATION ( 'MONTANT BTC STD', ( #233, #156 ), #234 ) ;
#228 = ORIENTED_EDGE ( 'NONE', *, *, #140, .T. ) ;
#229 = SURFACE_SIDE_STYLE ('',( #208 ) ) ;
#230 = DIRECTION ( 'NONE',  ( 0.000000000000000000, 1.239088197126292050E-16, -1.000000000000000000 ) ) ;
#231 = EDGE_CURVE ( 'NONE', #92, #9, #111, .T. ) ;
#232 = DIRECTION ( 'NONE',  ( 1.000000000000000000, 0.000000000000000000, 0.000000000000000000 ) ) ;
#233 = MANIFOLD_SOLID_BREP ( 'Cut-Extrude1', #220 ) ;
#234 =( GEOMETRIC_REPRESENTATION_CONTEXT ( 3 ) GLOBAL_UNCERTAINTY_ASSIGNED_CONTEXT ( ( #244 ) ) GLOBAL_UNIT_ASSIGNED_CONTEXT ( ( #242, #24, #127 ) ) REPRESENTATION_CONTEXT ( 'NONE', 'WORKASPACE' ) );
#235 = LINE ( 'NONE', #57, #112 ) ;
#236 = PRODUCT_DEFINITION_CONTEXT ( 'detailed design', #83, 'design' ) ;
#237 = DIRECTION ( 'NONE',  ( -0.000000000000000000, -0.000000000000000000, -1.000000000000000000 ) ) ;
#238 = VECTOR ( 'NONE', #148, 1000.000000000000000 ) ;
#239 = EDGE_CURVE ( 'NONE', #132, #206, #64, .T. ) ;
#240 = UNCERTAINTY_MEASURE_WITH_UNIT (LENGTH_MEASURE( 1.000000000000000082E-05 ), #53, 'distance_accuracy_value', 'NONE');
#241 = CARTESIAN_POINT ( 'NONE',  ( -100.0000000000000142, 75.00000000000001421, 0.000000000000000000 ) ) ;
#242 =( LENGTH_UNIT ( ) NAMED_UNIT ( * ) SI_UNIT ( .MILLI., .METRE. ) );
#243 =( GEOMETRIC_REPRESENTATION_CONTEXT ( 3 ) GLOBAL_UNCERTAINTY_ASSIGNED_CONTEXT ( ( #240 ) ) GLOBAL_UNIT_ASSIGNED_CONTEXT ( ( #53, #93, #259 ) ) REPRESENTATION_CONTEXT ( 'NONE', 'WORKASPACE' ) );
#244 = UNCERTAINTY_MEASURE_WITH_UNIT (LENGTH_MEASURE( 1.000000000000000082E-05 ), #242, 'distance_accuracy_value', 'NONE');
#245 = SURFACE_STYLE_FILL_AREA ( #146 ) ;
#246 = CARTESIAN_POINT ( 'NONE',  ( -100.0000000000000000, 74.99999999999998579, 20.00000000000000000 ) ) ;
#247 = DIRECTION ( 'NONE',  ( -0.000000000000000000, -0.000000000000000000, -1.000000000000000000 ) ) ;
#248 = CARTESIAN_POINT ( 'NONE',  ( -100.0000000000000000, 69.99999999999995737, 15.00000000000000000 ) ) ;
#249 = DIRECTION ( 'NONE',  ( 0.000000000000000000, 0.7071067811865453523, -0.7071067811865497932 ) ) ;
#250 = ORIENTED_EDGE ( 'NONE', *, *, #267, .F. ) ;
#251 = ORIENTED_EDGE ( 'NONE', *, *, #59, .F. ) ;
#252 = ADVANCED_FACE ( 'NONE', ( #3 ), #46, .F. ) ;
#253 = ORIENTED_EDGE ( 'NONE', *, *, #99, .T. ) ;
#254 = PRESENTATION_LAYER_ASSIGNMENT (  '', '', ( #73 ) ) ;
#255 = EDGE_CURVE ( 'NONE', #165, #133, #126, .T. ) ;
#256 = ORIENTED_EDGE ( 'NONE', *, *, #67, .F. ) ;
#257 = DIRECTION ( 'NONE',  ( -0.000000000000000000, 0.7071067811865534569, -0.7071067811865416886 ) ) ;
#258 = PRODUCT_DEFINITION_SHAPE ( 'NONE', 'NONE',  #263 ) ;
#259 =( NAMED_UNIT ( * ) SI_UNIT ( $, .STERADIAN. ) SOLID_ANGLE_UNIT ( ) );
#260 = FACE_OUTER_BOUND ( 'NONE', #23, .T. ) ;
#261 = VECTOR ( 'NONE', #35, 1000.000000000000000 ) ;
#262 = LINE ( 'NONE', #98, #86 ) ;
#263 = PRODUCT_DEFINITION ( 'UNKNOWN', '', #119, #236 ) ;
#264 = VECTOR ( 'NONE', #58, 1000.000000000000000 ) ;
#265 = ORIENTED_EDGE ( 'NONE', *, *, #76, .F. ) ;
#266 = CARTESIAN_POINT ( 'NONE',  ( 100.0000000000000000, 74.99999999999998579, 20.00000000000000000 ) ) ;
#267 = EDGE_CURVE ( 'NONE', #92, #190, #26, .T. ) ;
#268 = DIRECTION ( 'NONE',  ( 0.000000000000000000, 0.000000000000000000, 1.000000000000000000 ) ) ;
ENDSEC;
END-ISO-10303-21;
