ISO-10303-21;
HEADER;
/* Generated by software containing ST-Developer
 * from STEP Tools, Inc. (www.steptools.com) 
 */

FILE_DESCRIPTION(
/* description */ (''),
/* implementation_level */ '2;1');

FILE_NAME(
/* name */ 'C:/Users/matth/Downloads/flasque serrage v1.step',
/* time_stamp */ '2021-12-20T19:15:41+01:00',
/* author */ (''),
/* organization */ (''),
/* preprocessor_version */ 'ST-DEVELOPER v18.1',
/* originating_system */ 'Autodesk Translation Framework v10.10.0.1391',

/* authorisation */ '');

FILE_SCHEMA (('AUTOMOTIVE_DESIGN { 1 0 10303 214 3 1 1 }'));
ENDSEC;

DATA;
#10=MECHANICAL_DESIGN_GEOMETRIC_PRESENTATION_REPRESENTATION('',(#13),#463);
#11=SHAPE_REPRESENTATION_RELATIONSHIP('SRR','None',#470,#12);
#12=ADVANCED_BREP_SHAPE_REPRESENTATION('',(#14),#462);
#13=STYLED_ITEM('',(#479),#14);
#14=MANIFOLD_SOLID_BREP('Corps1',#268);
#15=CONICAL_SURFACE('',#299,5.60000000000003,0.785398163397448);
#16=CONICAL_SURFACE('',#303,11.3500000000001,1.26339885367208);
#17=CYLINDRICAL_SURFACE('',#297,3.50000000000003);
#18=CYLINDRICAL_SURFACE('',#307,16.5);
#19=FACE_BOUND('',#57,.T.);
#20=FACE_BOUND('',#61,.T.);
#21=FACE_BOUND('',#64,.T.);
#22=CIRCLE('',#286,16.5);
#23=CIRCLE('',#287,16.5);
#24=CIRCLE('',#292,16.5);
#25=CIRCLE('',#294,16.5);
#26=CIRCLE('',#295,16.5);
#27=CIRCLE('',#296,3.50000000000003);
#28=CIRCLE('',#298,3.50000000000003);
#29=CIRCLE('',#300,7.70000000000003);
#30=CIRCLE('',#302,8.20000000000003);
#31=CIRCLE('',#304,14.5000000000001);
#32=CIRCLE('',#306,16.5000000000001);
#33=FACE_OUTER_BOUND('',#48,.T.);
#34=FACE_OUTER_BOUND('',#49,.T.);
#35=FACE_OUTER_BOUND('',#50,.T.);
#36=FACE_OUTER_BOUND('',#51,.T.);
#37=FACE_OUTER_BOUND('',#52,.T.);
#38=FACE_OUTER_BOUND('',#53,.T.);
#39=FACE_OUTER_BOUND('',#54,.T.);
#40=FACE_OUTER_BOUND('',#55,.T.);
#41=FACE_OUTER_BOUND('',#56,.T.);
#42=FACE_OUTER_BOUND('',#58,.T.);
#43=FACE_OUTER_BOUND('',#59,.T.);
#44=FACE_OUTER_BOUND('',#60,.T.);
#45=FACE_OUTER_BOUND('',#62,.T.);
#46=FACE_OUTER_BOUND('',#63,.T.);
#47=FACE_OUTER_BOUND('',#65,.T.);
#48=EDGE_LOOP('',(#172,#173,#174,#175));
#49=EDGE_LOOP('',(#176,#177,#178,#179));
#50=EDGE_LOOP('',(#180,#181,#182,#183));
#51=EDGE_LOOP('',(#184,#185,#186,#187,#188));
#52=EDGE_LOOP('',(#189,#190,#191,#192));
#53=EDGE_LOOP('',(#193,#194,#195,#196));
#54=EDGE_LOOP('',(#197,#198,#199,#200));
#55=EDGE_LOOP('',(#201,#202,#203,#204));
#56=EDGE_LOOP('',(#205,#206,#207,#208,#209,#210,#211,#212));
#57=EDGE_LOOP('',(#213));
#58=EDGE_LOOP('',(#214,#215,#216,#217));
#59=EDGE_LOOP('',(#218,#219,#220,#221));
#60=EDGE_LOOP('',(#222));
#61=EDGE_LOOP('',(#223));
#62=EDGE_LOOP('',(#224,#225,#226,#227));
#63=EDGE_LOOP('',(#228));
#64=EDGE_LOOP('',(#229));
#65=EDGE_LOOP('',(#230,#231,#232,#233,#234,#235,#236,#237,#238,#239,#240,
#241));
#66=LINE('',#390,#90);
#67=LINE('',#392,#91);
#68=LINE('',#394,#92);
#69=LINE('',#395,#93);
#70=LINE('',#398,#94);
#71=LINE('',#400,#95);
#72=LINE('',#401,#96);
#73=LINE('',#404,#97);
#74=LINE('',#406,#98);
#75=LINE('',#407,#99);
#76=LINE('',#415,#100);
#77=LINE('',#417,#101);
#78=LINE('',#419,#102);
#79=LINE('',#420,#103);
#80=LINE('',#423,#104);
#81=LINE('',#425,#105);
#82=LINE('',#426,#106);
#83=LINE('',#429,#107);
#84=LINE('',#431,#108);
#85=LINE('',#432,#109);
#86=LINE('',#442,#110);
#87=LINE('',#446,#111);
#88=LINE('',#454,#112);
#89=LINE('',#459,#113);
#90=VECTOR('',#312,10.);
#91=VECTOR('',#313,10.);
#92=VECTOR('',#314,10.);
#93=VECTOR('',#315,10.);
#94=VECTOR('',#318,10.);
#95=VECTOR('',#319,10.);
#96=VECTOR('',#320,10.);
#97=VECTOR('',#323,10.);
#98=VECTOR('',#324,10.);
#99=VECTOR('',#325,10.);
#100=VECTOR('',#334,10.);
#101=VECTOR('',#335,10.);
#102=VECTOR('',#336,10.);
#103=VECTOR('',#337,10.);
#104=VECTOR('',#340,10.);
#105=VECTOR('',#341,10.);
#106=VECTOR('',#342,10.);
#107=VECTOR('',#345,10.);
#108=VECTOR('',#346,10.);
#109=VECTOR('',#347,10.);
#110=VECTOR('',#362,3.50000000000003);
#111=VECTOR('',#367,5.60000000000003);
#112=VECTOR('',#378,11.3500000000001);
#113=VECTOR('',#385,16.5);
#114=VERTEX_POINT('',#388);
#115=VERTEX_POINT('',#389);
#116=VERTEX_POINT('',#391);
#117=VERTEX_POINT('',#393);
#118=VERTEX_POINT('',#397);
#119=VERTEX_POINT('',#399);
#120=VERTEX_POINT('',#403);
#121=VERTEX_POINT('',#405);
#122=VERTEX_POINT('',#409);
#123=VERTEX_POINT('',#413);
#124=VERTEX_POINT('',#414);
#125=VERTEX_POINT('',#416);
#126=VERTEX_POINT('',#418);
#127=VERTEX_POINT('',#422);
#128=VERTEX_POINT('',#424);
#129=VERTEX_POINT('',#428);
#130=VERTEX_POINT('',#430);
#131=VERTEX_POINT('',#438);
#132=VERTEX_POINT('',#441);
#133=VERTEX_POINT('',#445);
#134=VERTEX_POINT('',#449);
#135=VERTEX_POINT('',#452);
#136=VERTEX_POINT('',#456);
#137=EDGE_CURVE('',#114,#115,#66,.T.);
#138=EDGE_CURVE('',#114,#116,#67,.T.);
#139=EDGE_CURVE('',#117,#116,#68,.T.);
#140=EDGE_CURVE('',#115,#117,#69,.T.);
#141=EDGE_CURVE('',#115,#118,#70,.T.);
#142=EDGE_CURVE('',#119,#117,#71,.T.);
#143=EDGE_CURVE('',#118,#119,#72,.T.);
#144=EDGE_CURVE('',#120,#114,#73,.T.);
#145=EDGE_CURVE('',#120,#121,#74,.T.);
#146=EDGE_CURVE('',#116,#121,#75,.T.);
#147=EDGE_CURVE('',#121,#122,#22,.T.);
#148=EDGE_CURVE('',#122,#119,#23,.T.);
#149=EDGE_CURVE('',#123,#124,#76,.T.);
#150=EDGE_CURVE('',#123,#125,#77,.T.);
#151=EDGE_CURVE('',#126,#125,#78,.T.);
#152=EDGE_CURVE('',#124,#126,#79,.T.);
#153=EDGE_CURVE('',#124,#127,#80,.T.);
#154=EDGE_CURVE('',#128,#126,#81,.T.);
#155=EDGE_CURVE('',#127,#128,#82,.T.);
#156=EDGE_CURVE('',#129,#123,#83,.T.);
#157=EDGE_CURVE('',#129,#130,#84,.T.);
#158=EDGE_CURVE('',#125,#130,#85,.T.);
#159=EDGE_CURVE('',#130,#128,#24,.T.);
#160=EDGE_CURVE('',#118,#129,#25,.T.);
#161=EDGE_CURVE('',#127,#120,#26,.T.);
#162=EDGE_CURVE('',#131,#131,#27,.T.);
#163=EDGE_CURVE('',#131,#132,#86,.T.);
#164=EDGE_CURVE('',#132,#132,#28,.T.);
#165=EDGE_CURVE('',#132,#133,#87,.T.);
#166=EDGE_CURVE('',#133,#133,#29,.T.);
#167=EDGE_CURVE('',#134,#134,#30,.T.);
#168=EDGE_CURVE('',#135,#135,#31,.T.);
#169=EDGE_CURVE('',#135,#134,#88,.T.);
#170=EDGE_CURVE('',#136,#136,#32,.T.);
#171=EDGE_CURVE('',#122,#136,#89,.T.);
#172=ORIENTED_EDGE('',*,*,#137,.F.);
#173=ORIENTED_EDGE('',*,*,#138,.T.);
#174=ORIENTED_EDGE('',*,*,#139,.F.);
#175=ORIENTED_EDGE('',*,*,#140,.F.);
#176=ORIENTED_EDGE('',*,*,#141,.F.);
#177=ORIENTED_EDGE('',*,*,#140,.T.);
#178=ORIENTED_EDGE('',*,*,#142,.F.);
#179=ORIENTED_EDGE('',*,*,#143,.F.);
#180=ORIENTED_EDGE('',*,*,#144,.F.);
#181=ORIENTED_EDGE('',*,*,#145,.T.);
#182=ORIENTED_EDGE('',*,*,#146,.F.);
#183=ORIENTED_EDGE('',*,*,#138,.F.);
#184=ORIENTED_EDGE('',*,*,#146,.T.);
#185=ORIENTED_EDGE('',*,*,#147,.T.);
#186=ORIENTED_EDGE('',*,*,#148,.T.);
#187=ORIENTED_EDGE('',*,*,#142,.T.);
#188=ORIENTED_EDGE('',*,*,#139,.T.);
#189=ORIENTED_EDGE('',*,*,#149,.F.);
#190=ORIENTED_EDGE('',*,*,#150,.T.);
#191=ORIENTED_EDGE('',*,*,#151,.F.);
#192=ORIENTED_EDGE('',*,*,#152,.F.);
#193=ORIENTED_EDGE('',*,*,#153,.F.);
#194=ORIENTED_EDGE('',*,*,#152,.T.);
#195=ORIENTED_EDGE('',*,*,#154,.F.);
#196=ORIENTED_EDGE('',*,*,#155,.F.);
#197=ORIENTED_EDGE('',*,*,#156,.F.);
#198=ORIENTED_EDGE('',*,*,#157,.T.);
#199=ORIENTED_EDGE('',*,*,#158,.F.);
#200=ORIENTED_EDGE('',*,*,#150,.F.);
#201=ORIENTED_EDGE('',*,*,#158,.T.);
#202=ORIENTED_EDGE('',*,*,#159,.T.);
#203=ORIENTED_EDGE('',*,*,#154,.T.);
#204=ORIENTED_EDGE('',*,*,#151,.T.);
#205=ORIENTED_EDGE('',*,*,#141,.T.);
#206=ORIENTED_EDGE('',*,*,#160,.T.);
#207=ORIENTED_EDGE('',*,*,#156,.T.);
#208=ORIENTED_EDGE('',*,*,#149,.T.);
#209=ORIENTED_EDGE('',*,*,#153,.T.);
#210=ORIENTED_EDGE('',*,*,#161,.T.);
#211=ORIENTED_EDGE('',*,*,#144,.T.);
#212=ORIENTED_EDGE('',*,*,#137,.T.);
#213=ORIENTED_EDGE('',*,*,#162,.F.);
#214=ORIENTED_EDGE('',*,*,#162,.T.);
#215=ORIENTED_EDGE('',*,*,#163,.T.);
#216=ORIENTED_EDGE('',*,*,#164,.F.);
#217=ORIENTED_EDGE('',*,*,#163,.F.);
#218=ORIENTED_EDGE('',*,*,#164,.T.);
#219=ORIENTED_EDGE('',*,*,#165,.T.);
#220=ORIENTED_EDGE('',*,*,#166,.F.);
#221=ORIENTED_EDGE('',*,*,#165,.F.);
#222=ORIENTED_EDGE('',*,*,#167,.F.);
#223=ORIENTED_EDGE('',*,*,#166,.T.);
#224=ORIENTED_EDGE('',*,*,#168,.F.);
#225=ORIENTED_EDGE('',*,*,#169,.T.);
#226=ORIENTED_EDGE('',*,*,#167,.T.);
#227=ORIENTED_EDGE('',*,*,#169,.F.);
#228=ORIENTED_EDGE('',*,*,#170,.F.);
#229=ORIENTED_EDGE('',*,*,#168,.T.);
#230=ORIENTED_EDGE('',*,*,#155,.T.);
#231=ORIENTED_EDGE('',*,*,#159,.F.);
#232=ORIENTED_EDGE('',*,*,#157,.F.);
#233=ORIENTED_EDGE('',*,*,#160,.F.);
#234=ORIENTED_EDGE('',*,*,#143,.T.);
#235=ORIENTED_EDGE('',*,*,#148,.F.);
#236=ORIENTED_EDGE('',*,*,#171,.T.);
#237=ORIENTED_EDGE('',*,*,#170,.T.);
#238=ORIENTED_EDGE('',*,*,#171,.F.);
#239=ORIENTED_EDGE('',*,*,#147,.F.);
#240=ORIENTED_EDGE('',*,*,#145,.F.);
#241=ORIENTED_EDGE('',*,*,#161,.F.);
#242=PLANE('',#282);
#243=PLANE('',#283);
#244=PLANE('',#284);
#245=PLANE('',#285);
#246=PLANE('',#288);
#247=PLANE('',#289);
#248=PLANE('',#290);
#249=PLANE('',#291);
#250=PLANE('',#293);
#251=PLANE('',#301);
#252=PLANE('',#305);
#253=ADVANCED_FACE('',(#33),#242,.T.);
#254=ADVANCED_FACE('',(#34),#243,.T.);
#255=ADVANCED_FACE('',(#35),#244,.T.);
#256=ADVANCED_FACE('',(#36),#245,.T.);
#257=ADVANCED_FACE('',(#37),#246,.T.);
#258=ADVANCED_FACE('',(#38),#247,.T.);
#259=ADVANCED_FACE('',(#39),#248,.T.);
#260=ADVANCED_FACE('',(#40),#249,.T.);
#261=ADVANCED_FACE('',(#41,#19),#250,.T.);
#262=ADVANCED_FACE('',(#42),#17,.F.);
#263=ADVANCED_FACE('',(#43),#15,.F.);
#264=ADVANCED_FACE('',(#44,#20),#251,.T.);
#265=ADVANCED_FACE('',(#45),#16,.T.);
#266=ADVANCED_FACE('',(#46,#21),#252,.T.);
#267=ADVANCED_FACE('',(#47),#18,.T.);
#268=CLOSED_SHELL('',(#253,#254,#255,#256,#257,#258,#259,#260,#261,#262,
#263,#264,#265,#266,#267));
#269=DERIVED_UNIT_ELEMENT(#271,1.);
#270=DERIVED_UNIT_ELEMENT(#465,-3.);
#271=(
MASS_UNIT()
NAMED_UNIT(*)
SI_UNIT(.KILO.,.GRAM.)
);
#272=DERIVED_UNIT((#269,#270));
#273=MEASURE_REPRESENTATION_ITEM('density measure',
POSITIVE_RATIO_MEASURE(7850.),#272);
#274=PROPERTY_DEFINITION_REPRESENTATION(#279,#276);
#275=PROPERTY_DEFINITION_REPRESENTATION(#280,#277);
#276=REPRESENTATION('material name',(#278),#462);
#277=REPRESENTATION('density',(#273),#462);
#278=DESCRIPTIVE_REPRESENTATION_ITEM('Acier','Acier');
#279=PROPERTY_DEFINITION('material property','material name',#472);
#280=PROPERTY_DEFINITION('material property','density of part',#472);
#281=AXIS2_PLACEMENT_3D('placement',#386,#308,#309);
#282=AXIS2_PLACEMENT_3D('',#387,#310,#311);
#283=AXIS2_PLACEMENT_3D('',#396,#316,#317);
#284=AXIS2_PLACEMENT_3D('',#402,#321,#322);
#285=AXIS2_PLACEMENT_3D('',#408,#326,#327);
#286=AXIS2_PLACEMENT_3D('',#410,#328,#329);
#287=AXIS2_PLACEMENT_3D('',#411,#330,#331);
#288=AXIS2_PLACEMENT_3D('',#412,#332,#333);
#289=AXIS2_PLACEMENT_3D('',#421,#338,#339);
#290=AXIS2_PLACEMENT_3D('',#427,#343,#344);
#291=AXIS2_PLACEMENT_3D('',#433,#348,#349);
#292=AXIS2_PLACEMENT_3D('',#434,#350,#351);
#293=AXIS2_PLACEMENT_3D('',#435,#352,#353);
#294=AXIS2_PLACEMENT_3D('',#436,#354,#355);
#295=AXIS2_PLACEMENT_3D('',#437,#356,#357);
#296=AXIS2_PLACEMENT_3D('',#439,#358,#359);
#297=AXIS2_PLACEMENT_3D('',#440,#360,#361);
#298=AXIS2_PLACEMENT_3D('',#443,#363,#364);
#299=AXIS2_PLACEMENT_3D('',#444,#365,#366);
#300=AXIS2_PLACEMENT_3D('',#447,#368,#369);
#301=AXIS2_PLACEMENT_3D('',#448,#370,#371);
#302=AXIS2_PLACEMENT_3D('',#450,#372,#373);
#303=AXIS2_PLACEMENT_3D('',#451,#374,#375);
#304=AXIS2_PLACEMENT_3D('',#453,#376,#377);
#305=AXIS2_PLACEMENT_3D('',#455,#379,#380);
#306=AXIS2_PLACEMENT_3D('',#457,#381,#382);
#307=AXIS2_PLACEMENT_3D('',#458,#383,#384);
#308=DIRECTION('axis',(0.,0.,1.));
#309=DIRECTION('refdir',(1.,0.,0.));
#310=DIRECTION('center_axis',(0.,1.,0.));
#311=DIRECTION('ref_axis',(1.,0.,0.));
#312=DIRECTION('',(-1.,0.,0.));
#313=DIRECTION('',(0.,0.,-1.));
#314=DIRECTION('',(1.,0.,0.));
#315=DIRECTION('',(0.,0.,-1.));
#316=DIRECTION('center_axis',(-1.,-3.03930112805474E-16,0.));
#317=DIRECTION('ref_axis',(-3.03930112805474E-16,1.,0.));
#318=DIRECTION('',(3.03930112805474E-16,-1.,0.));
#319=DIRECTION('',(-3.03930112805474E-16,1.,0.));
#320=DIRECTION('',(0.,0.,-1.));
#321=DIRECTION('center_axis',(1.,0.,0.));
#322=DIRECTION('ref_axis',(0.,-1.,0.));
#323=DIRECTION('',(0.,1.,0.));
#324=DIRECTION('',(0.,0.,-1.));
#325=DIRECTION('',(0.,-1.,0.));
#326=DIRECTION('center_axis',(0.,0.,-1.));
#327=DIRECTION('ref_axis',(1.,0.,0.));
#328=DIRECTION('center_axis',(0.,0.,-1.));
#329=DIRECTION('ref_axis',(1.,0.,0.));
#330=DIRECTION('center_axis',(0.,0.,-1.));
#331=DIRECTION('ref_axis',(1.,0.,0.));
#332=DIRECTION('center_axis',(-1.47244432974159E-16,-1.,0.));
#333=DIRECTION('ref_axis',(-1.,1.47244432974159E-16,0.));
#334=DIRECTION('',(1.,-1.47244432974159E-16,0.));
#335=DIRECTION('',(0.,0.,-1.));
#336=DIRECTION('',(-1.,1.47244432974159E-16,0.));
#337=DIRECTION('',(0.,0.,-1.));
#338=DIRECTION('center_axis',(1.,0.,0.));
#339=DIRECTION('ref_axis',(0.,-1.,0.));
#340=DIRECTION('',(0.,1.,0.));
#341=DIRECTION('',(0.,-1.,0.));
#342=DIRECTION('',(0.,0.,-1.));
#343=DIRECTION('center_axis',(-1.,-3.03930112805474E-16,0.));
#344=DIRECTION('ref_axis',(-3.03930112805474E-16,1.,0.));
#345=DIRECTION('',(3.03930112805474E-16,-1.,0.));
#346=DIRECTION('',(0.,0.,-1.));
#347=DIRECTION('',(-3.03930112805474E-16,1.,0.));
#348=DIRECTION('center_axis',(0.,0.,-1.));
#349=DIRECTION('ref_axis',(1.,0.,0.));
#350=DIRECTION('center_axis',(0.,0.,-1.));
#351=DIRECTION('ref_axis',(1.,0.,0.));
#352=DIRECTION('center_axis',(0.,0.,-1.));
#353=DIRECTION('ref_axis',(-1.,0.,0.));
#354=DIRECTION('center_axis',(0.,0.,-1.));
#355=DIRECTION('ref_axis',(1.,0.,0.));
#356=DIRECTION('center_axis',(0.,0.,-1.));
#357=DIRECTION('ref_axis',(1.,0.,0.));
#358=DIRECTION('center_axis',(0.,0.,-1.));
#359=DIRECTION('ref_axis',(1.,0.,0.));
#360=DIRECTION('center_axis',(0.,0.,-1.));
#361=DIRECTION('ref_axis',(0.,1.,0.));
#362=DIRECTION('',(0.,0.,1.));
#363=DIRECTION('center_axis',(0.,0.,-1.));
#364=DIRECTION('ref_axis',(1.,0.,0.));
#365=DIRECTION('center_axis',(0.,0.,1.));
#366=DIRECTION('ref_axis',(0.,1.,0.));
#367=DIRECTION('',(-8.65956056235493E-17,-0.707106781186548,0.707106781186548));
#368=DIRECTION('center_axis',(0.,0.,-1.));
#369=DIRECTION('ref_axis',(1.,0.,0.));
#370=DIRECTION('center_axis',(0.,0.,1.));
#371=DIRECTION('ref_axis',(1.,0.,0.));
#372=DIRECTION('center_axis',(0.,0.,-1.));
#373=DIRECTION('ref_axis',(1.,0.,0.));
#374=DIRECTION('center_axis',(0.,0.,-1.));
#375=DIRECTION('ref_axis',(0.,1.,0.));
#376=DIRECTION('center_axis',(0.,0.,-1.));
#377=DIRECTION('ref_axis',(1.,0.,0.));
#378=DIRECTION('',(1.16724058294823E-16,0.953124267144543,0.302579132426836));
#379=DIRECTION('center_axis',(0.,0.,1.));
#380=DIRECTION('ref_axis',(1.,0.,0.));
#381=DIRECTION('center_axis',(0.,0.,-1.));
#382=DIRECTION('ref_axis',(1.,0.,0.));
#383=DIRECTION('center_axis',(0.,0.,-1.));
#384=DIRECTION('ref_axis',(0.,1.,0.));
#385=DIRECTION('',(0.,0.,1.));
#386=CARTESIAN_POINT('',(0.,0.,0.));
#387=CARTESIAN_POINT('Origin',(-5.,-13.,0.));
#388=CARTESIAN_POINT('',(5.,-13.,0.));
#389=CARTESIAN_POINT('',(-5.,-13.,0.));
#390=CARTESIAN_POINT('',(-2.5,-13.,1.04083408558608E-15));
#391=CARTESIAN_POINT('',(5.,-13.,-2.));
#392=CARTESIAN_POINT('',(5.,-13.,0.));
#393=CARTESIAN_POINT('',(-5.,-13.,-2.));
#394=CARTESIAN_POINT('',(15.08,-13.,-2.));
#395=CARTESIAN_POINT('',(-5.,-13.,0.));
#396=CARTESIAN_POINT('Origin',(-5.,-15.7241851935164,0.));
#397=CARTESIAN_POINT('',(-5.,-15.7241851935164,0.));
#398=CARTESIAN_POINT('',(-5.,-6.11209259675818,1.04083408558608E-15));
#399=CARTESIAN_POINT('',(-5.,-15.7241851935164,-2.));
#400=CARTESIAN_POINT('',(-5.,-21.9173351605847,-2.));
#401=CARTESIAN_POINT('',(-5.,-15.7241851935164,0.));
#402=CARTESIAN_POINT('Origin',(5.,-13.,0.));
#403=CARTESIAN_POINT('',(5.,-15.7241851935164,0.));
#404=CARTESIAN_POINT('',(5.,-4.74999999999998,1.04083408558608E-15));
#405=CARTESIAN_POINT('',(5.,-15.7241851935164,-2.));
#406=CARTESIAN_POINT('',(5.,-15.7241851935164,0.));
#407=CARTESIAN_POINT('',(5.,21.9173351605785,-2.));
#408=CARTESIAN_POINT('Origin',(2.4980018054066E-15,-14.75,-2.));
#409=CARTESIAN_POINT('',(-2.02066721859314E-15,-16.5,-2.));
#410=CARTESIAN_POINT('Origin',(0.,0.,-2.));
#411=CARTESIAN_POINT('Origin',(0.,0.,-2.));
#412=CARTESIAN_POINT('Origin',(5.,13.,0.));
#413=CARTESIAN_POINT('',(-5.00000000000001,13.,0.));
#414=CARTESIAN_POINT('',(5.,13.,0.));
#415=CARTESIAN_POINT('',(2.5,13.,1.04083408558608E-15));
#416=CARTESIAN_POINT('',(-5.00000000000001,13.,-2.));
#417=CARTESIAN_POINT('',(-5.00000000000001,13.,0.));
#418=CARTESIAN_POINT('',(5.,13.,-2.));
#419=CARTESIAN_POINT('',(-15.08,13.,-2.));
#420=CARTESIAN_POINT('',(5.,13.,0.));
#421=CARTESIAN_POINT('Origin',(5.,15.7241851935164,0.));
#422=CARTESIAN_POINT('',(5.,15.7241851935164,0.));
#423=CARTESIAN_POINT('',(5.,9.61209259675821,1.04083408558608E-15));
#424=CARTESIAN_POINT('',(5.,15.7241851935164,-2.));
#425=CARTESIAN_POINT('',(5.,21.9173351605785,-2.));
#426=CARTESIAN_POINT('',(5.,15.7241851935164,0.));
#427=CARTESIAN_POINT('Origin',(-5.00000000000001,13.,0.));
#428=CARTESIAN_POINT('',(-5.00000000000001,15.7241851935164,0.));
#429=CARTESIAN_POINT('',(-5.00000000000001,8.25000000000001,1.04083408558608E-15));
#430=CARTESIAN_POINT('',(-5.00000000000001,15.7241851935164,-2.));
#431=CARTESIAN_POINT('',(-5.00000000000001,15.7241851935164,0.));
#432=CARTESIAN_POINT('',(-5.,-21.9173351605847,-2.));
#433=CARTESIAN_POINT('Origin',(-1.11022302462516E-15,14.75,-2.));
#434=CARTESIAN_POINT('Origin',(0.,0.,-2.));
#435=CARTESIAN_POINT('Origin',(0.,3.50000000000003,1.04083408558608E-15));
#436=CARTESIAN_POINT('Origin',(0.,0.,4.9960036108132E-15));
#437=CARTESIAN_POINT('Origin',(0.,0.,4.9960036108132E-15));
#438=CARTESIAN_POINT('',(-4.28626379701577E-16,-3.50000000000003,1.11022302462516E-15));
#439=CARTESIAN_POINT('Origin',(0.,0.,1.11022302462516E-15));
#440=CARTESIAN_POINT('Origin',(0.,0.,0.400000000000001));
#441=CARTESIAN_POINT('',(-4.28626379701577E-16,-3.50000000000003,0.800000000000001));
#442=CARTESIAN_POINT('',(-4.28626379701577E-16,-3.50000000000003,0.400000000000001));
#443=CARTESIAN_POINT('Origin',(0.,0.,0.800000000000001));
#444=CARTESIAN_POINT('Origin',(0.,0.,2.9));
#445=CARTESIAN_POINT('',(-9.42978035343465E-16,-7.70000000000003,5.));
#446=CARTESIAN_POINT('',(-6.85802207522521E-16,-5.60000000000003,2.9));
#447=CARTESIAN_POINT('Origin',(0.,0.,5.));
#448=CARTESIAN_POINT('Origin',(0.,8.20000000000003,5.));
#449=CARTESIAN_POINT('',(-1.00421037530083E-15,-8.20000000000003,5.));
#450=CARTESIAN_POINT('Origin',(0.,0.,5.));
#451=CARTESIAN_POINT('Origin',(0.,0.,4.));
#452=CARTESIAN_POINT('',(-1.77573785876367E-15,-14.5000000000001,3.00000000000001));
#453=CARTESIAN_POINT('Origin',(0.,0.,3.00000000000001));
#454=CARTESIAN_POINT('',(-1.38997411703225E-15,-11.3500000000001,4.));
#455=CARTESIAN_POINT('Origin',(0.,16.5000000000001,3.00000000000001));
#456=CARTESIAN_POINT('',(-2.02066721859314E-15,-16.5,3.00000000000001));
#457=CARTESIAN_POINT('Origin',(0.,0.,3.00000000000001));
#458=CARTESIAN_POINT('Origin',(0.,0.,1.50000000000001));
#459=CARTESIAN_POINT('',(-2.02066721859314E-15,-16.5,1.50000000000001));
#460=UNCERTAINTY_MEASURE_WITH_UNIT(LENGTH_MEASURE(0.01),#464,
'DISTANCE_ACCURACY_VALUE',
'Maximum model space distance between geometric entities at asserted c
onnectivities');
#461=UNCERTAINTY_MEASURE_WITH_UNIT(LENGTH_MEASURE(0.01),#464,
'DISTANCE_ACCURACY_VALUE',
'Maximum model space distance between geometric entities at asserted c
onnectivities');
#462=(
GEOMETRIC_REPRESENTATION_CONTEXT(3)
GLOBAL_UNCERTAINTY_ASSIGNED_CONTEXT((#460))
GLOBAL_UNIT_ASSIGNED_CONTEXT((#464,#466,#467))
REPRESENTATION_CONTEXT('','3D')
);
#463=(
GEOMETRIC_REPRESENTATION_CONTEXT(3)
GLOBAL_UNCERTAINTY_ASSIGNED_CONTEXT((#461))
GLOBAL_UNIT_ASSIGNED_CONTEXT((#464,#466,#467))
REPRESENTATION_CONTEXT('','3D')
);
#464=(
LENGTH_UNIT()
NAMED_UNIT(*)
SI_UNIT(.MILLI.,.METRE.)
);
#465=(
LENGTH_UNIT()
NAMED_UNIT(*)
SI_UNIT($,.METRE.)
);
#466=(
NAMED_UNIT(*)
PLANE_ANGLE_UNIT()
SI_UNIT($,.RADIAN.)
);
#467=(
NAMED_UNIT(*)
SI_UNIT($,.STERADIAN.)
SOLID_ANGLE_UNIT()
);
#468=SHAPE_DEFINITION_REPRESENTATION(#469,#470);
#469=PRODUCT_DEFINITION_SHAPE('',$,#472);
#470=SHAPE_REPRESENTATION('',(#281),#462);
#471=PRODUCT_DEFINITION_CONTEXT('part definition',#476,'design');
#472=PRODUCT_DEFINITION('flasque serrage','flasque serrage v1',#473,#471);
#473=PRODUCT_DEFINITION_FORMATION('',$,#478);
#474=PRODUCT_RELATED_PRODUCT_CATEGORY('flasque serrage v1',
'flasque serrage v1',(#478));
#475=APPLICATION_PROTOCOL_DEFINITION('international standard',
'automotive_design',2009,#476);
#476=APPLICATION_CONTEXT(
'Core Data for Automotive Mechanical Design Process');
#477=PRODUCT_CONTEXT('part definition',#476,'mechanical');
#478=PRODUCT('flasque serrage','flasque serrage v1',$,(#477));
#479=PRESENTATION_STYLE_ASSIGNMENT((#480));
#480=SURFACE_STYLE_USAGE(.BOTH.,#481);
#481=SURFACE_SIDE_STYLE('',(#482));
#482=SURFACE_STYLE_FILL_AREA(#483);
#483=FILL_AREA_STYLE('Acier - Satin\X\E9',(#484));
#484=FILL_AREA_STYLE_COLOUR('Acier - Satin\X\E9',#485);
#485=COLOUR_RGB('Acier - Satin\X\E9',0.627450980392157,0.627450980392157,
0.627450980392157);
ENDSEC;
END-ISO-10303-21;
