ISO-10303-21;
HEADER;
FILE_DESCRIPTION (( 'STEP AP214' ),
    '1' );
FILE_NAME ('Barre étalon.STEP',
    '2021-08-03T08:43:12',
    ( '' ),
    ( '' ),
    'SwSTEP 2.0',
    'SolidWorks 2020',
    '' );
FILE_SCHEMA (( 'AUTOMOTIVE_DESIGN' ));
ENDSEC;

DATA;
#1 = UNCERTAINTY_MEASURE_WITH_UNIT (LENGTH_MEASURE( 1.000000000000000082E-05 ), #96, 'distance_accuracy_value', 'NONE');
#2 = CARTESIAN_POINT ( 'NONE',  ( 0.000000000000000000, 0.000000000000000000, 500.0000000000000000 ) ) ;
#3 = EDGE_CURVE ( 'NONE', #305, #153, #352, .T. ) ;
#4 = MECHANICAL_DESIGN_GEOMETRIC_PRESENTATION_REPRESENTATION (  '', ( #217 ), #295 ) ;
#5 = DIRECTION ( 'NONE',  ( 0.000000000000000000, 0.000000000000000000, -1.000000000000000000 ) ) ;
#6 = CARTESIAN_POINT ( 'NONE',  ( -14.99999999999999822, 1.836970198721029589E-15, -500.0000000000000000 ) ) ;
#7 = LINE ( 'NONE', #327, #192 ) ;
#8 = LINE ( 'NONE', #292, #29 ) ;
#9 = COLOUR_RGB ( '',0.7921568627450980005, 0.8196078431372548767, 0.9333333333333333481 ) ;
#10 = DIRECTION ( 'NONE',  ( 0.000000000000000000, 0.000000000000000000, -1.000000000000000000 ) ) ;
#11 = EDGE_CURVE ( 'NONE', #123, #301, #134, .T. ) ;
#12 = ORIENTED_EDGE ( 'NONE', *, *, #103, .F. ) ;
#13 = CARTESIAN_POINT ( 'NONE',  ( 3.000000000012216006, 0.000000000000000000, 496.5358983848896059 ) ) ;
#14 = VERTEX_POINT ( 'NONE', #370 ) ;
#15 = ORIENTED_EDGE ( 'NONE', *, *, #241, .T. ) ;
#16 = DIRECTION ( 'NONE',  ( 1.000000000000000000, 0.000000000000000000, 0.000000000000000000 ) ) ;
#17 = ORIENTED_EDGE ( 'NONE', *, *, #246, .F. ) ;
#18 = ORIENTED_EDGE ( 'NONE', *, *, #338, .F. ) ;
#19 = EDGE_CURVE ( 'NONE', #305, #271, #98, .T. ) ;
#20 = DIRECTION ( 'NONE',  ( 1.000000000000000000, 0.000000000000000000, 0.000000000000000000 ) ) ;
#21 = ORIENTED_EDGE ( 'NONE', *, *, #211, .T. ) ;
#22 = CLOSED_SHELL ( 'NONE', ( #131, #321, #135, #147, #362, #194, #183, #234, #94, #296, #353, #97, #159, #391 ) ) ;
#23 = DIRECTION ( 'NONE',  ( 1.000000000000000000, 0.000000000000000000, 0.000000000000000000 ) ) ;
#24 = AXIS2_PLACEMENT_3D ( 'NONE', #127, #156, #307 ) ;
#25 = CIRCLE ( 'NONE', #255, 3.000000000012216006 ) ;
#26 = CYLINDRICAL_SURFACE ( 'NONE', #61, 3.000000000012216450 ) ;
#27 = ORIENTED_EDGE ( 'NONE', *, *, #169, .F. ) ;
#28 = FACE_OUTER_BOUND ( 'NONE', #48, .T. ) ;
#29 = VECTOR ( 'NONE', #265, 1000.000000000000000 ) ;
#30 = FILL_AREA_STYLE_COLOUR ( '', #186 ) ;
#31 = APPLICATION_CONTEXT ( 'automotive_design' ) ;
#32 = EDGE_CURVE ( 'NONE', #334, #129, #72, .T. ) ;
#33 = CARTESIAN_POINT ( 'NONE',  ( 0.000000000000000000, 0.000000000000000000, -487.0000000000000000 ) ) ;
#34 = CARTESIAN_POINT ( 'NONE',  ( 0.000000000000000000, 0.000000000000000000, 496.5358983848896059 ) ) ;
#35 = PRESENTATION_LAYER_ASSIGNMENT (  '', '', ( #217 ) ) ;
#36 = DIRECTION ( 'NONE',  ( 0.000000000000000000, 0.000000000000000000, 1.000000000000000000 ) ) ;
#37 = EDGE_CURVE ( 'NONE', #119, #110, #339, .T. ) ;
#38 = FACE_BOUND ( 'NONE', #208, .T. ) ;
#39 = CARTESIAN_POINT ( 'NONE',  ( 0.000000000000000000, 1.221664784191429459E-11, -487.0000000000000000 ) ) ;
#40 = VECTOR ( 'NONE', #105, 1000.000000000000000 ) ;
#41 = CONICAL_SURFACE ( 'NONE', #285, 3.000000000012216006, 0.5235987755990716419 ) ;
#42 = CARTESIAN_POINT ( 'NONE',  ( 0.000000000000000000, 0.000000000000000000, 487.0000000000000000 ) ) ;
#43 = VECTOR ( 'NONE', #146, 1000.000000000000114 ) ;
#44 = EDGE_CURVE ( 'NONE', #180, #87, #371, .T. ) ;
#45 = DIRECTION ( 'NONE',  ( 1.000000000000000000, 0.000000000000000000, 0.000000000000000000 ) ) ;
#46 = ORIENTED_EDGE ( 'NONE', *, *, #338, .T. ) ;
#47 = FILL_AREA_STYLE ('',( #380 ) ) ;
#48 = EDGE_LOOP ( 'NONE', ( #126, #304, #54, #209 ) ) ;
#49 = CARTESIAN_POINT ( 'NONE',  ( 0.000000000000000000, 0.000000000000000000, -500.9797366458761303 ) ) ;
#50 = EDGE_CURVE ( 'NONE', #180, #110, #189, .T. ) ;
#51 = EDGE_LOOP ( 'NONE', ( #83, #213, #367, #333 ) ) ;
#52 = ORIENTED_EDGE ( 'NONE', *, *, #32, .T. ) ;
#53 = DIRECTION ( 'NONE',  ( -0.000000000000000000, -0.000000000000000000, 1.000000000000000000 ) ) ;
#54 = ORIENTED_EDGE ( 'NONE', *, *, #169, .T. ) ;
#55 = VERTEX_POINT ( 'NONE', #342 ) ;
#56 = PRODUCT_DEFINITION ( 'UNKNOWN', '', #148, #375 ) ;
#57 = FACE_OUTER_BOUND ( 'NONE', #179, .T. ) ;
#58 = FACE_OUTER_BOUND ( 'NONE', #59, .T. ) ;
#59 = EDGE_LOOP ( 'NONE', ( #114, #359, #52, #27 ) ) ;
#60 = CYLINDRICAL_SURFACE ( 'NONE', #112, 14.99999999999999822 ) ;
#61 = AXIS2_PLACEMENT_3D ( 'NONE', #163, #279, #133 ) ;
#62 = EDGE_CURVE ( 'NONE', #301, #123, #222, .T. ) ;
#63 = STYLED_ITEM ( 'NONE', ( #106 ), #263 ) ;
#64 =( NAMED_UNIT ( * ) SI_UNIT ( $, .STERADIAN. ) SOLID_ANGLE_UNIT ( ) );
#65 = FACE_OUTER_BOUND ( 'NONE', #298, .T. ) ;
#66 = DIRECTION ( 'NONE',  ( 1.000000000000000000, 0.000000000000000000, 0.000000000000000000 ) ) ;
#67 = DIRECTION ( 'NONE',  ( 1.000000000000000000, 0.000000000000000000, 0.000000000000000000 ) ) ;
#68 = FACE_OUTER_BOUND ( 'NONE', #157, .T. ) ;
#69 = UNCERTAINTY_MEASURE_WITH_UNIT (LENGTH_MEASURE( 1.000000000000000082E-05 ), #248, 'distance_accuracy_value', 'NONE');
#70 = LINE ( 'NONE', #178, #85 ) ;
#71 = PLANE ( 'NONE',  #289 ) ;
#72 = CIRCLE ( 'NONE', #111, 3.000000000012216894 ) ;
#73 = EDGE_CURVE ( 'NONE', #87, #119, #374, .T. ) ;
#74 = VECTOR ( 'NONE', #317, 1000.000000000000000 ) ;
#75 = DIRECTION ( 'NONE',  ( -0.000000000000000000, -0.000000000000000000, 1.000000000000000000 ) ) ;
#76 = CARTESIAN_POINT ( 'NONE',  ( 0.000000000000000000, 0.000000000000000000, 500.0000000000000000 ) ) ;
#77 = VECTOR ( 'NONE', #378, 1000.000000000000000 ) ;
#78 = CARTESIAN_POINT ( 'NONE',  ( 0.000000000000000000, 0.000000000000000000, -500.0000000000000000 ) ) ;
#79 = CARTESIAN_POINT ( 'NONE',  ( 0.000000000000000000, 0.000000000000000000, 500.0000000000000000 ) ) ;
#80 = CARTESIAN_POINT ( 'NONE',  ( 0.000000000000000000, 0.000000000000000000, -500.0000000000000000 ) ) ;
#81 = PRODUCT_DEFINITION_SHAPE ( 'NONE', 'NONE',  #56 ) ;
#82 = ORIENTED_EDGE ( 'NONE', *, *, #103, .T. ) ;
#83 = ORIENTED_EDGE ( 'NONE', *, *, #50, .F. ) ;
#84 = CARTESIAN_POINT ( 'NONE',  ( -3.000000000012216006, 3.673940397457020122E-16, 496.5358983848896059 ) ) ;
#85 = VECTOR ( 'NONE', #288, 1000.000000000000000 ) ;
#86 = EDGE_LOOP ( 'NONE', ( #273, #330 ) ) ;
#87 = VERTEX_POINT ( 'NONE', #309 ) ;
#88 = DIRECTION ( 'NONE',  ( 0.000000000000000000, 0.000000000000000000, 1.000000000000000000 ) ) ;
#89 = ORIENTED_EDGE ( 'NONE', *, *, #252, .F. ) ;
#90 = ORIENTED_EDGE ( 'NONE', *, *, #225, .F. ) ;
#91 = DIRECTION ( 'NONE',  ( 1.000000000000000000, 0.000000000000000000, 0.000000000000000000 ) ) ;
#92 = CARTESIAN_POINT ( 'NONE',  ( 4.999999999999994671, 0.000000000000000000, 500.0000000000000000 ) ) ;
#93 = ORIENTED_EDGE ( 'NONE', *, *, #225, .T. ) ;
#94 = ADVANCED_FACE ( 'NONE', ( #346 ), #139, .T. ) ;
#95 = AXIS2_PLACEMENT_3D ( 'NONE', #341, #5, #395 ) ;
#96 =( LENGTH_UNIT ( ) NAMED_UNIT ( * ) SI_UNIT ( .MILLI., .METRE. ) );
#97 = ADVANCED_FACE ( 'NONE', ( #68 ), #221, .F. ) ;
#98 = CIRCLE ( 'NONE', #303, 3.000000000012216006 ) ;
#99 = DIRECTION ( 'NONE',  ( -0.000000000000000000, -0.000000000000000000, -1.000000000000000000 ) ) ;
#100 = CONICAL_SURFACE ( 'NONE', #324, 5.565651216232534892, 0.5235987755990717529 ) ;
#101 = AXIS2_PLACEMENT_3D ( 'NONE', #78, #207, #143 ) ;
#102 = CARTESIAN_POINT ( 'NONE',  ( 14.99999999999999822, 0.000000000000000000, 500.0000000000000000 ) ) ;
#103 = EDGE_CURVE ( 'NONE', #206, #123, #335, .T. ) ;
#104 = DIRECTION ( 'NONE',  ( -0.000000000000000000, -0.000000000000000000, 1.000000000000000000 ) ) ;
#105 = DIRECTION ( 'NONE',  ( 0.000000000000000000, 0.000000000000000000, 1.000000000000000000 ) ) ;
#106 = PRESENTATION_STYLE_ASSIGNMENT (( #351 ) ) ;
#107 = CYLINDRICAL_SURFACE ( 'NONE', #204, 14.99999999999999822 ) ;
#108 = EDGE_CURVE ( 'NONE', #271, #334, #161, .T. ) ;
#109 = CARTESIAN_POINT ( 'NONE',  ( 0.000000000000000000, 0.000000000000000000, -496.5358983848896059 ) ) ;
#110 = VERTEX_POINT ( 'NONE', #365 ) ;
#111 = AXIS2_PLACEMENT_3D ( 'NONE', #33, #260, #125 ) ;
#112 = AXIS2_PLACEMENT_3D ( 'NONE', #210, #88, #188 ) ;
#113 = FACE_OUTER_BOUND ( 'NONE', #266, .T. ) ;
#114 = ORIENTED_EDGE ( 'NONE', *, *, #290, .F. ) ;
#115 = CARTESIAN_POINT ( 'NONE',  ( -14.99999999999999822, 1.836970198721029589E-15, -500.0000000000000000 ) ) ;
#116 = EDGE_LOOP ( 'NONE', ( #293, #155 ) ) ;
#117 = DIRECTION ( 'NONE',  ( 1.000000000000000000, 0.000000000000000000, 0.000000000000000000 ) ) ;
#118 = EDGE_LOOP ( 'NONE', ( #389, #270 ) ) ;
#119 = VERTEX_POINT ( 'NONE', #102 ) ;
#120 = CARTESIAN_POINT ( 'NONE',  ( 0.000000000000000000, 0.000000000000000000, 0.000000000000000000 ) ) ;
#121 = PRESENTATION_LAYER_ASSIGNMENT (  '', '', ( #63 ) ) ;
#122 = ORIENTED_EDGE ( 'NONE', *, *, #73, .F. ) ;
#123 = VERTEX_POINT ( 'NONE', #92 ) ;
#124 = DIRECTION ( 'NONE',  ( -0.000000000000000000, -0.000000000000000000, 1.000000000000000000 ) ) ;
#125 = DIRECTION ( 'NONE',  ( 1.000000000000000000, 0.000000000000000000, 0.000000000000000000 ) ) ;
#126 = ORIENTED_EDGE ( 'NONE', *, *, #108, .F. ) ;
#127 = CARTESIAN_POINT ( 'NONE',  ( 0.000000000000000000, 0.000000000000000000, 0.000000000000000000 ) ) ;
#128 = CARTESIAN_POINT ( 'NONE',  ( 0.000000000000000000, 0.000000000000000000, -500.0000000000000000 ) ) ;
#129 = VERTEX_POINT ( 'NONE', #137 ) ;
#130 = DIRECTION ( 'NONE',  ( -0.000000000000000000, -0.000000000000000000, 1.000000000000000000 ) ) ;
#131 = ADVANCED_FACE ( 'NONE', ( #58 ), #26, .F. ) ;
#132 = APPLICATION_PROTOCOL_DEFINITION ( 'draft international standard', 'automotive_design', 1998, #31 ) ;
#133 = DIRECTION ( 'NONE',  ( 1.000000000000000000, 0.000000000000000000, 0.000000000000000000 ) ) ;
#134 = CIRCLE ( 'NONE', #253, 4.999999999999994671 ) ;
#135 = ADVANCED_FACE ( 'NONE', ( #345 ), #376, .F. ) ;
#136 = CIRCLE ( 'NONE', #306, 3.000000000012216894 ) ;
#137 = CARTESIAN_POINT ( 'NONE',  ( 3.000000000012216894, 0.000000000000000000, -487.0000000000000000 ) ) ;
#138 = AXIS2_PLACEMENT_3D ( 'NONE', #34, #249, #66 ) ;
#139 = PLANE ( 'NONE',  #320 ) ;
#140 = DIRECTION ( 'NONE',  ( 0.000000000000000000, 0.000000000000000000, 1.000000000000000000 ) ) ;
#141 = CIRCLE ( 'NONE', #243, 14.99999999999999822 ) ;
#142 = EDGE_CURVE ( 'NONE', #355, #206, #199, .T. ) ;
#143 = DIRECTION ( 'NONE',  ( 1.000000000000000000, 0.000000000000000000, 0.000000000000000000 ) ) ;
#144 = LINE ( 'NONE', #200, #43 ) ;
#145 = ORIENTED_EDGE ( 'NONE', *, *, #258, .T. ) ;
#146 = DIRECTION ( 'NONE',  ( -0.5000000000006692424, 0.000000000000000000, -0.8660254037840522390 ) ) ;
#147 = ADVANCED_FACE ( 'NONE', ( #65 ), #195, .F. ) ;
#148 = PRODUCT_DEFINITION_FORMATION_WITH_SPECIFIED_SOURCE ( 'ANY', '', #152, .NOT_KNOWN. ) ;
#149 = ORIENTED_EDGE ( 'NONE', *, *, #3, .F. ) ;
#150 = DIRECTION ( 'NONE',  ( 1.000000000000000000, 0.000000000000000000, 0.000000000000000000 ) ) ;
#151 = EDGE_LOOP ( 'NONE', ( #18, #17, #212, #21 ) ) ;
#152 = PRODUCT ( 'Barre étalon', 'Barre étalon', '', ( #311 ) ) ;
#153 = VERTEX_POINT ( 'NONE', #284 ) ;
#154 = CYLINDRICAL_SURFACE ( 'NONE', #24, 3.000000000012216450 ) ;
#155 = ORIENTED_EDGE ( 'NONE', *, *, #228, .T. ) ;
#156 = DIRECTION ( 'NONE',  ( -0.000000000000000000, -0.000000000000000000, 1.000000000000000000 ) ) ;
#157 = EDGE_LOOP ( 'NONE', ( #149, #164, #392, #328 ) ) ;
#158 = FACE_OUTER_BOUND ( 'NONE', #151, .T. ) ;
#159 = ADVANCED_FACE ( 'NONE', ( #257 ), #205, .T. ) ;
#160 = CIRCLE ( 'NONE', #235, 3.000000000012216006 ) ;
#161 = LINE ( 'NONE', #245, #369 ) ;
#162 =( NAMED_UNIT ( * ) PLANE_ANGLE_UNIT ( ) SI_UNIT ( $, .RADIAN. ) );
#163 = CARTESIAN_POINT ( 'NONE',  ( 0.000000000000000000, 0.000000000000000000, 0.000000000000000000 ) ) ;
#164 = ORIENTED_EDGE ( 'NONE', *, *, #19, .T. ) ;
#165 = CARTESIAN_POINT ( 'NONE',  ( 0.000000000000000000, 0.000000000000000000, -487.0000000000000000 ) ) ;
#166 = FILL_AREA_STYLE ('',( #30 ) ) ;
#167 = DIRECTION ( 'NONE',  ( 1.000000000000000000, 0.000000000000000000, 0.000000000000000000 ) ) ;
#168 = CARTESIAN_POINT ( 'NONE',  ( 0.000000000000000000, 0.000000000000000000, 0.000000000000000000 ) ) ;
#169 = EDGE_CURVE ( 'NONE', #305, #129, #70, .T. ) ;
#170 = DIRECTION ( 'NONE',  ( 0.000000000000000000, -0.000000000000000000, 1.000000000000000000 ) ) ;
#171 = DIRECTION ( 'NONE',  ( 1.000000000000000000, 0.000000000000000000, 0.000000000000000000 ) ) ;
#172 = EDGE_CURVE ( 'NONE', #55, #153, #224, .T. ) ;
#173 = AXIS2_PLACEMENT_3D ( 'NONE', #197, #36, #227 ) ;
#174 = CIRCLE ( 'NONE', #101, 4.999999999999994671 ) ;
#175 = FACE_BOUND ( 'NONE', #242, .T. ) ;
#176 = EDGE_CURVE ( 'NONE', #271, #55, #144, .T. ) ;
#177 = ORIENTED_EDGE ( 'NONE', *, *, #50, .T. ) ;
#178 = CARTESIAN_POINT ( 'NONE',  ( 3.000000000012216450, 0.000000000000000000, 0.000000000000000000 ) ) ;
#179 = EDGE_LOOP ( 'NONE', ( #90, #272, #82, #182 ) ) ;
#180 = VERTEX_POINT ( 'NONE', #115 ) ;
#181 = CARTESIAN_POINT ( 'NONE',  ( -4.999999999999994671, 6.123233995736759380E-16, 500.0000000000000000 ) ) ;
#182 = ORIENTED_EDGE ( 'NONE', *, *, #62, .F. ) ;
#183 = ADVANCED_FACE ( 'NONE', ( #175, #113 ), #356, .F. ) ;
#184 = DIRECTION ( 'NONE',  ( -0.000000000000000000, -0.000000000000000000, 1.000000000000000000 ) ) ;
#185 = ORIENTED_EDGE ( 'NONE', *, *, #176, .F. ) ;
#186 = COLOUR_RGB ( '',0.7921568627450980005, 0.8196078431372548767, 0.9333333333333333481 ) ;
#187 = ORIENTED_EDGE ( 'NONE', *, *, #37, .F. ) ;
#188 = DIRECTION ( 'NONE',  ( 1.000000000000000000, 0.000000000000000000, 0.000000000000000000 ) ) ;
#189 = LINE ( 'NONE', #6, #74 ) ;
#190 = CARTESIAN_POINT ( 'NONE',  ( 3.000000000012216894, 0.000000000000000000, 487.0000000000000000 ) ) ;
#191 = SURFACE_STYLE_USAGE ( .BOTH. , #196 ) ;
#192 = VECTOR ( 'NONE', #261, 1000.000000000000000 ) ;
#193 = DIRECTION ( 'NONE',  ( -0.000000000000000000, -0.000000000000000000, 1.000000000000000000 ) ) ;
#194 = ADVANCED_FACE ( 'NONE', ( #238 ), #107, .T. ) ;
#195 = CYLINDRICAL_SURFACE ( 'NONE', #343, 3.000000000012216450 ) ;
#196 = SURFACE_SIDE_STYLE ('',( #344 ) ) ;
#197 = CARTESIAN_POINT ( 'NONE',  ( 0.000000000000000000, 0.000000000000000000, 500.0000000000000000 ) ) ;
#198 = DIRECTION ( 'NONE',  ( 1.000000000000000000, 0.000000000000000000, 0.000000000000000000 ) ) ;
#199 = CIRCLE ( 'NONE', #138, 3.000000000012216006 ) ;
#200 = CARTESIAN_POINT ( 'NONE',  ( -5.565651216232534892, 0.000000000000000000, -500.9797366458761303 ) ) ;
#201 = VECTOR ( 'NONE', #387, 1000.000000000000114 ) ;
#202 = DIRECTION ( 'NONE',  ( 0.000000000000000000, 0.000000000000000000, 1.000000000000000000 ) ) ;
#203 = AXIS2_PLACEMENT_3D ( 'NONE', #329, #310, #20 ) ;
#204 = AXIS2_PLACEMENT_3D ( 'NONE', #80, #231, #45 ) ;
#205 = PLANE ( 'NONE',  #247 ) ;
#206 = VERTEX_POINT ( 'NONE', #13 ) ;
#207 = DIRECTION ( 'NONE',  ( -0.000000000000000000, -0.000000000000000000, -1.000000000000000000 ) ) ;
#208 = EDGE_LOOP ( 'NONE', ( #237, #297 ) ) ;
#209 = ORIENTED_EDGE ( 'NONE', *, *, #308, .T. ) ;
#210 = CARTESIAN_POINT ( 'NONE',  ( 0.000000000000000000, 0.000000000000000000, -500.0000000000000000 ) ) ;
#211 = EDGE_CURVE ( 'NONE', #206, #355, #25, .T. ) ;
#212 = ORIENTED_EDGE ( 'NONE', *, *, #252, .T. ) ;
#213 = ORIENTED_EDGE ( 'NONE', *, *, #44, .T. ) ;
#214 = ORIENTED_EDGE ( 'NONE', *, *, #11, .F. ) ;
#215 = DIRECTION ( 'NONE',  ( -1.000000000000000000, 0.000000000000000000, 0.000000000000000000 ) ) ;
#216 = CARTESIAN_POINT ( 'NONE',  ( 0.000000000000000000, 0.000000000000000000, -496.5358983848896059 ) ) ;
#217 = STYLED_ITEM ( 'NONE', ( #281 ), #368 ) ;
#218 = CARTESIAN_POINT ( 'NONE',  ( -3.000000000012216006, 0.000000000000000000, -496.5358983848896059 ) ) ;
#219 = AXIS2_PLACEMENT_3D ( 'NONE', #251, #184, #117 ) ;
#220 = SHAPE_DEFINITION_REPRESENTATION ( #81, #368 ) ;
#221 = CONICAL_SURFACE ( 'NONE', #95, 5.565651216232534892, 0.5235987755990717529 ) ;
#222 = CIRCLE ( 'NONE', #283, 4.999999999999994671 ) ;
#223 = CARTESIAN_POINT ( 'NONE',  ( 0.000000000000000000, 1.221664784191429459E-11, 487.0000000000000000 ) ) ;
#224 = CIRCLE ( 'NONE', #262, 4.999999999999994671 ) ;
#225 = EDGE_CURVE ( 'NONE', #355, #301, #8, .T. ) ;
#226 = DIRECTION ( 'NONE',  ( 1.000000000000000000, 0.000000000000000000, 0.000000000000000000 ) ) ;
#227 = DIRECTION ( 'NONE',  ( 1.000000000000000000, 0.000000000000000000, 0.000000000000000000 ) ) ;
#228 = EDGE_CURVE ( 'NONE', #110, #119, #141, .T. ) ;
#229 = DIRECTION ( 'NONE',  ( 0.000000000000000000, 0.000000000000000000, 1.000000000000000000 ) ) ;
#230 = DIRECTION ( 'NONE',  ( 0.000000000000000000, 0.000000000000000000, 1.000000000000000000 ) ) ;
#231 = DIRECTION ( 'NONE',  ( 0.000000000000000000, 0.000000000000000000, 1.000000000000000000 ) ) ;
#232 = SURFACE_SIDE_STYLE ('',( #319 ) ) ;
#233 = ORIENTED_EDGE ( 'NONE', *, *, #377, .F. ) ;
#234 = ADVANCED_FACE ( 'NONE', ( #38, #349 ), #71, .T. ) ;
#235 = AXIS2_PLACEMENT_3D ( 'NONE', #109, #53, #16 ) ;
#236 = CARTESIAN_POINT ( 'NONE',  ( 0.000000000000000000, 0.000000000000000000, 496.5358983848896059 ) ) ;
#237 = ORIENTED_EDGE ( 'NONE', *, *, #11, .T. ) ;
#238 = FACE_OUTER_BOUND ( 'NONE', #51, .T. ) ;
#239 = ORIENTED_EDGE ( 'NONE', *, *, #142, .F. ) ;
#240 = CARTESIAN_POINT ( 'NONE',  ( 3.000000000012216006, 4.898587196596891230E-16, -496.5358983848896059 ) ) ;
#241 = EDGE_CURVE ( 'NONE', #87, #180, #373, .T. ) ;
#242 = EDGE_LOOP ( 'NONE', ( #385, #280 ) ) ;
#243 = AXIS2_PLACEMENT_3D ( 'NONE', #76, #325, #318 ) ;
#244 = ORIENTED_EDGE ( 'NONE', *, *, #142, .T. ) ;
#245 = CARTESIAN_POINT ( 'NONE',  ( -3.000000000012216450, 3.673940397457020122E-16, 0.000000000000000000 ) ) ;
#246 = EDGE_CURVE ( 'NONE', #363, #14, #340, .T. ) ;
#247 = AXIS2_PLACEMENT_3D ( 'NONE', #39, #10, #264 ) ;
#248 =( LENGTH_UNIT ( ) NAMED_UNIT ( * ) SI_UNIT ( .MILLI., .METRE. ) );
#249 = DIRECTION ( 'NONE',  ( -0.000000000000000000, -0.000000000000000000, 1.000000000000000000 ) ) ;
#250 = ORIENTED_EDGE ( 'NONE', *, *, #3, .T. ) ;
#251 = CARTESIAN_POINT ( 'NONE',  ( 0.000000000000000000, 0.000000000000000000, 0.000000000000000000 ) ) ;
#252 = EDGE_CURVE ( 'NONE', #363, #206, #7, .T. ) ;
#253 = AXIS2_PLACEMENT_3D ( 'NONE', #79, #99, #198 ) ;
#254 = DIRECTION ( 'NONE',  ( -0.000000000000000000, -0.000000000000000000, 1.000000000000000000 ) ) ;
#255 = AXIS2_PLACEMENT_3D ( 'NONE', #236, #75, #291 ) ;
#256 = AXIS2_PLACEMENT_3D ( 'NONE', #397, #254, #226 ) ;
#257 = FACE_OUTER_BOUND ( 'NONE', #86, .T. ) ;
#258 = EDGE_CURVE ( 'NONE', #153, #55, #174, .T. ) ;
#259 =( NAMED_UNIT ( * ) SI_UNIT ( $, .STERADIAN. ) SOLID_ANGLE_UNIT ( ) );
#260 = DIRECTION ( 'NONE',  ( -0.000000000000000000, -0.000000000000000000, 1.000000000000000000 ) ) ;
#261 = DIRECTION ( 'NONE',  ( -0.000000000000000000, -0.000000000000000000, 1.000000000000000000 ) ) ;
#262 = AXIS2_PLACEMENT_3D ( 'NONE', #388, #322, #150 ) ;
#263 = MANIFOLD_SOLID_BREP ( 'Enlèvement de matière-Révolution1', #22 ) ;
#264 = DIRECTION ( 'NONE',  ( -1.000000000000000000, 0.000000000000000000, -0.000000000000000000 ) ) ;
#265 = DIRECTION ( 'NONE',  ( -0.5000000000006692424, 6.123233995744961561E-17, 0.8660254037840522390 ) ) ;
#266 = EDGE_LOOP ( 'NONE', ( #326, #331 ) ) ;
#267 = CARTESIAN_POINT ( 'NONE',  ( 0.000000000000000000, 0.000000000000000000, 500.0000000000000000 ) ) ;
#268 = CARTESIAN_POINT ( 'NONE',  ( 5.565651216232534892, 6.815956947129746931E-16, -500.9797366458761303 ) ) ;
#269 = DIRECTION ( 'NONE',  ( 1.000000000000000000, 0.000000000000000000, -0.000000000000000000 ) ) ;
#270 = ORIENTED_EDGE ( 'NONE', *, *, #377, .T. ) ;
#271 = VERTEX_POINT ( 'NONE', #218 ) ;
#272 = ORIENTED_EDGE ( 'NONE', *, *, #211, .F. ) ;
#273 = ORIENTED_EDGE ( 'NONE', *, *, #308, .F. ) ;
#274 =( GEOMETRIC_REPRESENTATION_CONTEXT ( 3 ) GLOBAL_UNCERTAINTY_ASSIGNED_CONTEXT ( ( #323 ) ) GLOBAL_UNIT_ASSIGNED_CONTEXT ( ( #348, #278, #332 ) ) REPRESENTATION_CONTEXT ( 'NONE', 'WORKASPACE' ) );
#275 = DIRECTION ( 'NONE',  ( 0.000000000000000000, 0.000000000000000000, -1.000000000000000000 ) ) ;
#276 = AXIS2_PLACEMENT_3D ( 'NONE', #386, #140, #171 ) ;
#277 = DIRECTION ( 'NONE',  ( -0.000000000000000000, -0.000000000000000000, -1.000000000000000000 ) ) ;
#278 =( NAMED_UNIT ( * ) PLANE_ANGLE_UNIT ( ) SI_UNIT ( $, .RADIAN. ) );
#279 = DIRECTION ( 'NONE',  ( -0.000000000000000000, -0.000000000000000000, 1.000000000000000000 ) ) ;
#280 = ORIENTED_EDGE ( 'NONE', *, *, #258, .F. ) ;
#281 = PRESENTATION_STYLE_ASSIGNMENT (( #191 ) ) ;
#282 = CARTESIAN_POINT ( 'NONE',  ( 14.99999999999999822, 0.000000000000000000, -500.0000000000000000 ) ) ;
#283 = AXIS2_PLACEMENT_3D ( 'NONE', #2, #277, #23 ) ;
#284 = CARTESIAN_POINT ( 'NONE',  ( 4.999999999999995559, 6.123233995736760366E-16, -500.0000000000000000 ) ) ;
#285 = AXIS2_PLACEMENT_3D ( 'NONE', #337, #124, #364 ) ;
#286 = DIRECTION ( 'NONE',  ( -0.000000000000000000, -0.000000000000000000, 1.000000000000000000 ) ) ;
#287 = DIRECTION ( 'NONE',  ( 1.000000000000000000, 0.000000000000000000, 0.000000000000000000 ) ) ;
#288 = DIRECTION ( 'NONE',  ( -0.000000000000000000, -0.000000000000000000, 1.000000000000000000 ) ) ;
#289 = AXIS2_PLACEMENT_3D ( 'NONE', #267, #202, #383 ) ;
#290 = EDGE_CURVE ( 'NONE', #271, #305, #160, .T. ) ;
#291 = DIRECTION ( 'NONE',  ( 1.000000000000000000, 0.000000000000000000, 0.000000000000000000 ) ) ;
#292 = CARTESIAN_POINT ( 'NONE',  ( -3.000000000012216006, 3.673940397457019629E-16, 496.5358983848896059 ) ) ;
#293 = ORIENTED_EDGE ( 'NONE', *, *, #37, .T. ) ;
#294 = CARTESIAN_POINT ( 'NONE',  ( 0.000000000000000000, 0.000000000000000000, -500.0000000000000000 ) ) ;
#295 =( GEOMETRIC_REPRESENTATION_CONTEXT ( 3 ) GLOBAL_UNCERTAINTY_ASSIGNED_CONTEXT ( ( #1 ) ) GLOBAL_UNIT_ASSIGNED_CONTEXT ( ( #96, #400, #64 ) ) REPRESENTATION_CONTEXT ( 'NONE', 'WORKASPACE' ) );
#296 = ADVANCED_FACE ( 'NONE', ( #158 ), #358, .F. ) ;
#297 = ORIENTED_EDGE ( 'NONE', *, *, #62, .T. ) ;
#298 = EDGE_LOOP ( 'NONE', ( #233, #46, #244, #89 ) ) ;
#299 = EDGE_LOOP ( 'NONE', ( #357, #250, #145, #185 ) ) ;
#300 = FACE_OUTER_BOUND ( 'NONE', #398, .T. ) ;
#301 = VERTEX_POINT ( 'NONE', #181 ) ;
#302 = DIRECTION ( 'NONE',  ( -0.000000000000000000, -0.000000000000000000, 1.000000000000000000 ) ) ;
#303 = AXIS2_PLACEMENT_3D ( 'NONE', #216, #286, #67 ) ;
#304 = ORIENTED_EDGE ( 'NONE', *, *, #19, .F. ) ;
#305 = VERTEX_POINT ( 'NONE', #240 ) ;
#306 = AXIS2_PLACEMENT_3D ( 'NONE', #165, #302, #91 ) ;
#307 = DIRECTION ( 'NONE',  ( 1.000000000000000000, 0.000000000000000000, 0.000000000000000000 ) ) ;
#308 = EDGE_CURVE ( 'NONE', #129, #334, #136, .T. ) ;
#309 = CARTESIAN_POINT ( 'NONE',  ( 14.99999999999999822, 0.000000000000000000, -500.0000000000000000 ) ) ;
#310 = DIRECTION ( 'NONE',  ( -0.000000000000000000, -0.000000000000000000, 1.000000000000000000 ) ) ;
#311 = PRODUCT_CONTEXT ( 'NONE', #312, 'mechanical' ) ;
#312 = APPLICATION_CONTEXT ( 'automotive_design' ) ;
#313 = AXIS2_PLACEMENT_3D ( 'NONE', #294, #382, #269 ) ;
#314 = DIRECTION ( 'NONE',  ( 1.000000000000000000, 0.000000000000000000, 0.000000000000000000 ) ) ;
#315 = DIRECTION ( 'NONE',  ( 1.000000000000000000, 0.000000000000000000, 0.000000000000000000 ) ) ;
#316 =( GEOMETRIC_REPRESENTATION_CONTEXT ( 3 ) GLOBAL_UNCERTAINTY_ASSIGNED_CONTEXT ( ( #69 ) ) GLOBAL_UNIT_ASSIGNED_CONTEXT ( ( #248, #162, #259 ) ) REPRESENTATION_CONTEXT ( 'NONE', 'WORKASPACE' ) );
#317 = DIRECTION ( 'NONE',  ( 0.000000000000000000, 0.000000000000000000, 1.000000000000000000 ) ) ;
#318 = DIRECTION ( 'NONE',  ( 1.000000000000000000, 0.000000000000000000, 0.000000000000000000 ) ) ;
#319 = SURFACE_STYLE_FILL_AREA ( #47 ) ;
#320 = AXIS2_PLACEMENT_3D ( 'NONE', #223, #170, #314 ) ;
#321 = ADVANCED_FACE ( 'NONE', ( #399 ), #100, .F. ) ;
#322 = DIRECTION ( 'NONE',  ( -0.000000000000000000, -0.000000000000000000, -1.000000000000000000 ) ) ;
#323 = UNCERTAINTY_MEASURE_WITH_UNIT (LENGTH_MEASURE( 1.000000000000000082E-05 ), #348, 'distance_accuracy_value', 'NONE');
#324 = AXIS2_PLACEMENT_3D ( 'NONE', #49, #275, #215 ) ;
#325 = DIRECTION ( 'NONE',  ( 0.000000000000000000, 0.000000000000000000, 1.000000000000000000 ) ) ;
#326 = ORIENTED_EDGE ( 'NONE', *, *, #241, .F. ) ;
#327 = CARTESIAN_POINT ( 'NONE',  ( 3.000000000012216450, 0.000000000000000000, 0.000000000000000000 ) ) ;
#328 = ORIENTED_EDGE ( 'NONE', *, *, #172, .T. ) ;
#329 = CARTESIAN_POINT ( 'NONE',  ( 0.000000000000000000, 0.000000000000000000, 487.0000000000000000 ) ) ;
#330 = ORIENTED_EDGE ( 'NONE', *, *, #32, .F. ) ;
#331 = ORIENTED_EDGE ( 'NONE', *, *, #44, .F. ) ;
#332 =( NAMED_UNIT ( * ) SI_UNIT ( $, .STERADIAN. ) SOLID_ANGLE_UNIT ( ) );
#333 = ORIENTED_EDGE ( 'NONE', *, *, #228, .F. ) ;
#334 = VERTEX_POINT ( 'NONE', #361 ) ;
#335 = LINE ( 'NONE', #379, #77 ) ;
#336 = CIRCLE ( 'NONE', #203, 3.000000000012216894 ) ;
#337 = CARTESIAN_POINT ( 'NONE',  ( 0.000000000000000000, 0.000000000000000000, 496.5358983848896059 ) ) ;
#338 = EDGE_CURVE ( 'NONE', #14, #355, #394, .T. ) ;
#339 = CIRCLE ( 'NONE', #173, 14.99999999999999822 ) ;
#340 = CIRCLE ( 'NONE', #360, 3.000000000012216894 ) ;
#341 = CARTESIAN_POINT ( 'NONE',  ( 0.000000000000000000, 0.000000000000000000, -500.9797366458761303 ) ) ;
#342 = CARTESIAN_POINT ( 'NONE',  ( -4.999999999999995559, 0.000000000000000000, -500.0000000000000000 ) ) ;
#343 = AXIS2_PLACEMENT_3D ( 'NONE', #168, #193, #315 ) ;
#344 = SURFACE_STYLE_FILL_AREA ( #166 ) ;
#345 = FACE_OUTER_BOUND ( 'NONE', #390, .T. ) ;
#346 = FACE_OUTER_BOUND ( 'NONE', #118, .T. ) ;
#347 = DIRECTION ( 'NONE',  ( 1.000000000000000000, 0.000000000000000000, 0.000000000000000000 ) ) ;
#348 =( LENGTH_UNIT ( ) NAMED_UNIT ( * ) SI_UNIT ( .MILLI., .METRE. ) );
#349 = FACE_OUTER_BOUND ( 'NONE', #116, .T. ) ;
#350 = AXIS2_PLACEMENT_3D ( 'NONE', #128, #229, #167 ) ;
#351 = SURFACE_STYLE_USAGE ( .BOTH. , #232 ) ;
#352 = LINE ( 'NONE', #268, #201 ) ;
#353 = ADVANCED_FACE ( 'NONE', ( #57 ), #41, .F. ) ;
#354 = DIRECTION ( 'NONE',  ( -0.000000000000000000, -0.000000000000000000, 1.000000000000000000 ) ) ;
#355 = VERTEX_POINT ( 'NONE', #84 ) ;
#356 = PLANE ( 'NONE',  #313 ) ;
#357 = ORIENTED_EDGE ( 'NONE', *, *, #290, .T. ) ;
#358 = CYLINDRICAL_SURFACE ( 'NONE', #219, 3.000000000012216450 ) ;
#359 = ORIENTED_EDGE ( 'NONE', *, *, #108, .T. ) ;
#360 = AXIS2_PLACEMENT_3D ( 'NONE', #42, #354, #287 ) ;
#361 = CARTESIAN_POINT ( 'NONE',  ( -3.000000000012217338, 3.673940397457021108E-16, -487.0000000000000000 ) ) ;
#362 = ADVANCED_FACE ( 'NONE', ( #300 ), #60, .T. ) ;
#363 = VERTEX_POINT ( 'NONE', #190 ) ;
#364 = DIRECTION ( 'NONE',  ( 1.000000000000000000, 0.000000000000000000, 0.000000000000000000 ) ) ;
#365 = CARTESIAN_POINT ( 'NONE',  ( -14.99999999999999822, 1.836970198721029589E-15, 500.0000000000000000 ) ) ;
#366 = AXIS2_PLACEMENT_3D ( 'NONE', #120, #230, #347 ) ;
#367 = ORIENTED_EDGE ( 'NONE', *, *, #73, .T. ) ;
#368 = ADVANCED_BREP_SHAPE_REPRESENTATION ( 'Barre Útalon', ( #263, #366 ), #316 ) ;
#369 = VECTOR ( 'NONE', #104, 1000.000000000000000 ) ;
#370 = CARTESIAN_POINT ( 'NONE',  ( -3.000000000012217338, 3.673940397457021108E-16, 487.0000000000000000 ) ) ;
#371 = CIRCLE ( 'NONE', #350, 14.99999999999999822 ) ;
#372 = VECTOR ( 'NONE', #130, 1000.000000000000000 ) ;
#373 = CIRCLE ( 'NONE', #276, 14.99999999999999822 ) ;
#374 = LINE ( 'NONE', #282, #40 ) ;
#375 = PRODUCT_DEFINITION_CONTEXT ( 'detailed design', #31, 'design' ) ;
#376 = CONICAL_SURFACE ( 'NONE', #256, 3.000000000012216006, 0.5235987755990716419 ) ;
#377 = EDGE_CURVE ( 'NONE', #14, #363, #336, .T. ) ;
#378 = DIRECTION ( 'NONE',  ( 0.5000000000006692424, 0.000000000000000000, 0.8660254037840522390 ) ) ;
#379 = CARTESIAN_POINT ( 'NONE',  ( 3.000000000012216006, 0.000000000000000000, 496.5358983848896059 ) ) ;
#380 = FILL_AREA_STYLE_COLOUR ( '', #9 ) ;
#381 = APPLICATION_PROTOCOL_DEFINITION ( 'draft international standard', 'automotive_design', 1998, #312 ) ;
#382 = DIRECTION ( 'NONE',  ( 0.000000000000000000, 0.000000000000000000, 1.000000000000000000 ) ) ;
#383 = DIRECTION ( 'NONE',  ( 1.000000000000000000, 0.000000000000000000, -0.000000000000000000 ) ) ;
#384 = PRODUCT_RELATED_PRODUCT_CATEGORY ( 'part', '', ( #152 ) ) ;
#385 = ORIENTED_EDGE ( 'NONE', *, *, #172, .F. ) ;
#386 = CARTESIAN_POINT ( 'NONE',  ( 0.000000000000000000, 0.000000000000000000, -500.0000000000000000 ) ) ;
#387 = DIRECTION ( 'NONE',  ( 0.5000000000006692424, 6.123233995744961561E-17, -0.8660254037840522390 ) ) ;
#388 = CARTESIAN_POINT ( 'NONE',  ( 0.000000000000000000, 0.000000000000000000, -500.0000000000000000 ) ) ;
#389 = ORIENTED_EDGE ( 'NONE', *, *, #246, .T. ) ;
#390 = EDGE_LOOP ( 'NONE', ( #239, #93, #214, #12 ) ) ;
#391 = ADVANCED_FACE ( 'NONE', ( #28 ), #154, .F. ) ;
#392 = ORIENTED_EDGE ( 'NONE', *, *, #176, .T. ) ;
#393 = MECHANICAL_DESIGN_GEOMETRIC_PRESENTATION_REPRESENTATION (  '', ( #63 ), #274 ) ;
#394 = LINE ( 'NONE', #396, #372 ) ;
#395 = DIRECTION ( 'NONE',  ( -1.000000000000000000, 0.000000000000000000, 0.000000000000000000 ) ) ;
#396 = CARTESIAN_POINT ( 'NONE',  ( -3.000000000012216450, 3.673940397457020122E-16, 0.000000000000000000 ) ) ;
#397 = CARTESIAN_POINT ( 'NONE',  ( 0.000000000000000000, 0.000000000000000000, 496.5358983848896059 ) ) ;
#398 = EDGE_LOOP ( 'NONE', ( #15, #177, #187, #122 ) ) ;
#399 = FACE_OUTER_BOUND ( 'NONE', #299, .T. ) ;
#400 =( NAMED_UNIT ( * ) PLANE_ANGLE_UNIT ( ) SI_UNIT ( $, .RADIAN. ) );
ENDSEC;
END-ISO-10303-21;
