ISO-10303-21;
HEADER;
FILE_DESCRIPTION((''),'2;1');
FILE_NAME('JGA00225_AXE_D12-2_L66','2021-08-05T',('Jocelyn'),(''),
'PRO/ENGINEER BY PARAMETRIC TECHNOLOGY CORPORATION, 2017170',
'PRO/ENGINEER BY PARAMETRIC TECHNOLOGY CORPORATION, 2017170','');
FILE_SCHEMA(('CONFIG_CONTROL_DESIGN'));
ENDSEC;
DATA;
#2=CARTESIAN_POINT('',(0.E0,-3.25E1,0.E0));
#3=DIRECTION('',(0.E0,-1.E0,0.E0));
#4=DIRECTION('',(0.E0,0.E0,-1.E0));
#5=AXIS2_PLACEMENT_3D('',#2,#3,#4);
#7=CARTESIAN_POINT('',(0.E0,-3.25E1,0.E0));
#8=DIRECTION('',(0.E0,-1.E0,0.E0));
#9=DIRECTION('',(0.E0,0.E0,1.E0));
#10=AXIS2_PLACEMENT_3D('',#7,#8,#9);
#12=DIRECTION('',(-3.063150759400E-9,8.660254037844E-1,-5.E-1));
#13=VECTOR('',#12,1.154700539613E0);
#14=CARTESIAN_POINT('',(2.325579973703E-8,-3.250000000702E1,-4.422649726755E0));
#15=LINE('',#14,#13);
#16=DIRECTION('',(3.063150733784E-9,8.660254037844E-1,5.E-1));
#17=VECTOR('',#16,1.154700539613E0);
#18=CARTESIAN_POINT('',(-2.325580036855E-8,-3.250000000702E1,4.422649726755E0));
#19=LINE('',#18,#17);
#20=CARTESIAN_POINT('',(0.E0,-3.15E1,0.E0));
#21=DIRECTION('',(0.E0,-1.E0,0.E0));
#22=DIRECTION('',(0.E0,0.E0,1.E0));
#23=AXIS2_PLACEMENT_3D('',#20,#21,#22);
#25=DIRECTION('',(-1.408484164433E-9,1.E0,-2.456145761920E-10));
#26=VECTOR('',#25,1.400000000596E1);
#27=CARTESIAN_POINT('',(1.971877790223E-8,-3.150000000596E1,-4.999999996561E0));
#28=LINE('',#27,#26);
#29=DIRECTION('',(1.408484211655E-9,1.E0,2.456145761920E-10));
#30=VECTOR('',#29,1.400000000596E1);
#31=CARTESIAN_POINT('',(-1.971877856334E-8,-3.150000000596E1,4.999999996561E0));
#32=LINE('',#31,#30);
#33=CARTESIAN_POINT('',(0.E0,-3.15E1,0.E0));
#34=DIRECTION('',(0.E0,-1.E0,0.E0));
#35=DIRECTION('',(0.E0,0.E0,-1.E0));
#36=AXIS2_PLACEMENT_3D('',#33,#34,#35);
#38=CARTESIAN_POINT('',(0.E0,-1.75E1,0.E0));
#39=DIRECTION('',(0.E0,-1.E0,0.E0));
#40=DIRECTION('',(0.E0,0.E0,1.E0));
#41=AXIS2_PLACEMENT_3D('',#38,#39,#40);
#43=CARTESIAN_POINT('',(0.E0,-1.75E1,0.E0));
#44=DIRECTION('',(0.E0,1.E0,0.E0));
#45=DIRECTION('',(0.E0,0.E0,1.E0));
#46=AXIS2_PLACEMENT_3D('',#43,#44,#45);
#48=CARTESIAN_POINT('',(0.E0,-1.75E1,0.E0));
#49=DIRECTION('',(0.E0,1.E0,0.E0));
#50=DIRECTION('',(-1.E0,0.E0,0.E0));
#51=AXIS2_PLACEMENT_3D('',#48,#49,#50);
#53=CARTESIAN_POINT('',(0.E0,-1.75E1,0.E0));
#54=DIRECTION('',(0.E0,1.E0,0.E0));
#55=DIRECTION('',(1.E0,0.E0,0.E0));
#56=AXIS2_PLACEMENT_3D('',#53,#54,#55);
#58=DIRECTION('',(7.071067811865E-1,-7.071067811865E-1,-2.916280426665E-10));
#59=VECTOR('',#58,7.071067823409E-1);
#60=CARTESIAN_POINT('',(-6.099999996357E0,-1.700000000364E1,
-9.204153246709E-10));
#61=LINE('',#60,#59);
#62=CARTESIAN_POINT('',(0.E0,-1.7E1,0.E0));
#63=DIRECTION('',(0.E0,1.E0,0.E0));
#64=DIRECTION('',(-1.E0,0.E0,0.E0));
#65=AXIS2_PLACEMENT_3D('',#62,#63,#64);
#67=DIRECTION('',(-7.359819599460E-11,1.E0,1.859423389028E-11));
#68=VECTOR('',#67,4.950000000364E1);
#69=CARTESIAN_POINT('',(-6.099999996357E0,-1.700000000364E1,
-9.204153246709E-10));
#70=LINE('',#69,#68);
#71=CARTESIAN_POINT('',(0.E0,3.25E1,0.E0));
#72=DIRECTION('',(0.E0,1.E0,0.E0));
#73=DIRECTION('',(-1.E0,0.E0,0.E0));
#74=AXIS2_PLACEMENT_3D('',#71,#72,#73);
#76=CARTESIAN_POINT('',(0.E0,-1.7E1,0.E0));
#77=DIRECTION('',(0.E0,1.E0,0.E0));
#78=DIRECTION('',(1.E0,0.E0,0.E0));
#79=AXIS2_PLACEMENT_3D('',#76,#77,#78);
#81=DIRECTION('',(7.359817805160E-11,1.E0,-1.859422304347E-11));
#82=VECTOR('',#81,4.950000000364E1);
#83=CARTESIAN_POINT('',(6.099999996357E0,-1.700000000364E1,9.204147877542E-10));
#84=LINE('',#83,#82);
#85=CARTESIAN_POINT('',(0.E0,3.25E1,0.E0));
#86=DIRECTION('',(0.E0,1.E0,0.E0));
#87=DIRECTION('',(1.E0,0.E0,0.E0));
#88=AXIS2_PLACEMENT_3D('',#85,#86,#87);
#90=DIRECTION('',(-7.071067811865E-1,-7.071067811865E-1,2.916286856219E-10));
#91=VECTOR('',#90,7.071067823409E-1);
#92=CARTESIAN_POINT('',(6.099999996357E0,-1.700000000364E1,9.204147877543E-10));
#93=LINE('',#92,#91);
#94=DIRECTION('',(-1.E0,0.E0,0.E0));
#95=VECTOR('',#94,1.2E1);
#96=CARTESIAN_POINT('',(6.E0,3.25E1,-8.E0));
#97=LINE('',#96,#95);
#98=CARTESIAN_POINT('',(0.E0,3.25E1,0.E0));
#99=DIRECTION('',(0.E0,1.E0,0.E0));
#100=DIRECTION('',(-6.E-1,0.E0,-8.E-1));
#101=AXIS2_PLACEMENT_3D('',#98,#99,#100);
#103=DIRECTION('',(1.E0,0.E0,0.E0));
#104=VECTOR('',#103,1.2E1);
#105=CARTESIAN_POINT('',(-6.E0,3.25E1,8.E0));
#106=LINE('',#105,#104);
#107=CARTESIAN_POINT('',(0.E0,3.25E1,0.E0));
#108=DIRECTION('',(0.E0,1.E0,0.E0));
#109=DIRECTION('',(6.E-1,0.E0,8.E-1));
#110=AXIS2_PLACEMENT_3D('',#107,#108,#109);
#112=DIRECTION('',(0.E0,1.E0,0.E0));
#113=VECTOR('',#112,3.E0);
#114=CARTESIAN_POINT('',(6.E0,3.25E1,-8.E0));
#115=LINE('',#114,#113);
#116=DIRECTION('',(0.E0,1.E0,0.E0));
#117=VECTOR('',#116,3.E0);
#118=CARTESIAN_POINT('',(6.E0,3.25E1,8.E0));
#119=LINE('',#118,#117);
#120=DIRECTION('',(0.E0,1.E0,0.E0));
#121=VECTOR('',#120,3.E0);
#122=CARTESIAN_POINT('',(-6.E0,3.25E1,8.E0));
#123=LINE('',#122,#121);
#124=DIRECTION('',(0.E0,1.E0,0.E0));
#125=VECTOR('',#124,3.E0);
#126=CARTESIAN_POINT('',(-6.E0,3.25E1,-8.E0));
#127=LINE('',#126,#125);
#128=DIRECTION('',(-1.E0,0.E0,0.E0));
#129=VECTOR('',#128,1.2E1);
#130=CARTESIAN_POINT('',(6.E0,3.55E1,-8.E0));
#131=LINE('',#130,#129);
#132=CARTESIAN_POINT('',(0.E0,3.55E1,0.E0));
#133=DIRECTION('',(0.E0,1.E0,0.E0));
#134=DIRECTION('',(6.E-1,0.E0,8.E-1));
#135=AXIS2_PLACEMENT_3D('',#132,#133,#134);
#137=DIRECTION('',(1.E0,0.E0,0.E0));
#138=VECTOR('',#137,1.2E1);
#139=CARTESIAN_POINT('',(-6.E0,3.55E1,8.E0));
#140=LINE('',#139,#138);
#141=CARTESIAN_POINT('',(0.E0,3.55E1,0.E0));
#142=DIRECTION('',(0.E0,1.E0,0.E0));
#143=DIRECTION('',(-6.E-1,0.E0,-8.E-1));
#144=AXIS2_PLACEMENT_3D('',#141,#142,#143);
#146=CARTESIAN_POINT('',(-6.1E0,3.25E1,0.E0));
#147=CARTESIAN_POINT('',(6.1E0,3.25E1,0.E0));
#148=VERTEX_POINT('',#146);
#149=VERTEX_POINT('',#147);
#150=CARTESIAN_POINT('',(6.E0,3.25E1,-8.E0));
#151=CARTESIAN_POINT('',(-6.E0,3.25E1,-8.E0));
#152=VERTEX_POINT('',#150);
#153=VERTEX_POINT('',#151);
#154=CARTESIAN_POINT('',(-6.E0,3.25E1,8.E0));
#155=VERTEX_POINT('',#154);
#156=CARTESIAN_POINT('',(6.E0,3.25E1,8.E0));
#157=VERTEX_POINT('',#156);
#158=CARTESIAN_POINT('',(6.E0,3.55E1,-8.E0));
#159=CARTESIAN_POINT('',(-6.E0,3.55E1,-8.E0));
#160=VERTEX_POINT('',#158);
#161=VERTEX_POINT('',#159);
#162=CARTESIAN_POINT('',(-6.E0,3.55E1,8.E0));
#163=VERTEX_POINT('',#162);
#164=CARTESIAN_POINT('',(6.E0,3.55E1,8.E0));
#165=VERTEX_POINT('',#164);
#166=CARTESIAN_POINT('',(0.E0,-1.75E1,5.E0));
#167=CARTESIAN_POINT('',(0.E0,-1.75E1,-5.E0));
#168=VERTEX_POINT('',#166);
#169=VERTEX_POINT('',#167);
#170=CARTESIAN_POINT('',(0.E0,-3.25E1,-4.422649730810E0));
#171=CARTESIAN_POINT('',(0.E0,-3.25E1,4.422649730810E0));
#172=VERTEX_POINT('',#170);
#173=VERTEX_POINT('',#171);
#174=CARTESIAN_POINT('',(0.E0,-3.15E1,-5.E0));
#175=CARTESIAN_POINT('',(0.E0,-3.15E1,5.E0));
#176=VERTEX_POINT('',#174);
#177=VERTEX_POINT('',#175);
#178=CARTESIAN_POINT('',(-6.1E0,-1.7E1,0.E0));
#179=CARTESIAN_POINT('',(6.1E0,-1.7E1,0.E0));
#180=VERTEX_POINT('',#178);
#181=VERTEX_POINT('',#179);
#182=CARTESIAN_POINT('',(-5.6E0,-1.75E1,0.E0));
#183=CARTESIAN_POINT('',(5.6E0,-1.75E1,0.E0));
#184=VERTEX_POINT('',#182);
#185=VERTEX_POINT('',#183);
#186=CARTESIAN_POINT('',(0.E0,-3.25E1,0.E0));
#187=DIRECTION('',(0.E0,1.E0,0.E0));
#188=DIRECTION('',(-1.E0,0.E0,0.E0));
#189=AXIS2_PLACEMENT_3D('',#186,#187,#188);
#190=PLANE('',#189);
#192=ORIENTED_EDGE('',*,*,#191,.F.);
#194=ORIENTED_EDGE('',*,*,#193,.F.);
#195=EDGE_LOOP('',(#192,#194));
#196=FACE_OUTER_BOUND('',#195,.F.);
#197=ADVANCED_FACE('',(#196),#190,.F.);
#198=CARTESIAN_POINT('',(0.E0,-3.200000000569E1,0.E0));
#199=DIRECTION('',(0.E0,1.E0,0.E0));
#200=DIRECTION('',(0.E0,0.E0,-1.E0));
#201=AXIS2_PLACEMENT_3D('',#198,#199,#200);
#202=CONICAL_SURFACE('',#201,4.711324862120E0,3.E1);
#203=ORIENTED_EDGE('',*,*,#191,.T.);
#205=ORIENTED_EDGE('',*,*,#204,.T.);
#207=ORIENTED_EDGE('',*,*,#206,.F.);
#209=ORIENTED_EDGE('',*,*,#208,.F.);
#210=EDGE_LOOP('',(#203,#205,#207,#209));
#211=FACE_OUTER_BOUND('',#210,.F.);
#212=ADVANCED_FACE('',(#211),#202,.T.);
#213=CARTESIAN_POINT('',(0.E0,-3.200000000569E1,0.E0));
#214=DIRECTION('',(0.E0,1.E0,0.E0));
#215=DIRECTION('',(0.E0,0.E0,-1.E0));
#216=AXIS2_PLACEMENT_3D('',#213,#214,#215);
#217=CONICAL_SURFACE('',#216,4.711324862120E0,3.E1);
#218=ORIENTED_EDGE('',*,*,#193,.T.);
#219=ORIENTED_EDGE('',*,*,#208,.T.);
#221=ORIENTED_EDGE('',*,*,#220,.F.);
#222=ORIENTED_EDGE('',*,*,#204,.F.);
#223=EDGE_LOOP('',(#218,#219,#221,#222));
#224=FACE_OUTER_BOUND('',#223,.F.);
#225=ADVANCED_FACE('',(#224),#217,.T.);
#226=CARTESIAN_POINT('',(0.E0,0.E0,0.E0));
#227=DIRECTION('',(0.E0,1.E0,0.E0));
#228=DIRECTION('',(0.E0,0.E0,-1.E0));
#229=AXIS2_PLACEMENT_3D('',#226,#227,#228);
#230=CYLINDRICAL_SURFACE('',#229,5.E0);
#231=ORIENTED_EDGE('',*,*,#220,.T.);
#233=ORIENTED_EDGE('',*,*,#232,.T.);
#235=ORIENTED_EDGE('',*,*,#234,.F.);
#237=ORIENTED_EDGE('',*,*,#236,.F.);
#238=EDGE_LOOP('',(#231,#233,#235,#237));
#239=FACE_OUTER_BOUND('',#238,.F.);
#240=ADVANCED_FACE('',(#239),#230,.T.);
#241=CARTESIAN_POINT('',(0.E0,0.E0,0.E0));
#242=DIRECTION('',(0.E0,1.E0,0.E0));
#243=DIRECTION('',(0.E0,0.E0,-1.E0));
#244=AXIS2_PLACEMENT_3D('',#241,#242,#243);
#245=CYLINDRICAL_SURFACE('',#244,5.E0);
#246=ORIENTED_EDGE('',*,*,#206,.T.);
#247=ORIENTED_EDGE('',*,*,#236,.T.);
#249=ORIENTED_EDGE('',*,*,#248,.T.);
#250=ORIENTED_EDGE('',*,*,#232,.F.);
#251=EDGE_LOOP('',(#246,#247,#249,#250));
#252=FACE_OUTER_BOUND('',#251,.F.);
#253=ADVANCED_FACE('',(#252),#245,.T.);
#254=CARTESIAN_POINT('',(0.E0,-1.75E1,0.E0));
#255=DIRECTION('',(0.E0,1.E0,0.E0));
#256=DIRECTION('',(0.E0,0.E0,-1.E0));
#257=AXIS2_PLACEMENT_3D('',#254,#255,#256);
#258=PLANE('',#257);
#260=ORIENTED_EDGE('',*,*,#259,.T.);
#262=ORIENTED_EDGE('',*,*,#261,.T.);
#263=EDGE_LOOP('',(#260,#262));
#264=FACE_OUTER_BOUND('',#263,.F.);
#265=ORIENTED_EDGE('',*,*,#234,.T.);
#266=ORIENTED_EDGE('',*,*,#248,.F.);
#267=EDGE_LOOP('',(#265,#266));
#268=FACE_BOUND('',#267,.F.);
#269=ADVANCED_FACE('',(#264,#268),#258,.F.);
#270=CARTESIAN_POINT('',(0.E0,-1.725000000318E1,0.E0));
#271=DIRECTION('',(0.E0,1.E0,0.E0));
#272=DIRECTION('',(0.E0,0.E0,-1.E0));
#273=AXIS2_PLACEMENT_3D('',#270,#271,#272);
#274=CONICAL_SURFACE('',#273,5.849999996815E0,4.5E1);
#276=ORIENTED_EDGE('',*,*,#275,.T.);
#278=ORIENTED_EDGE('',*,*,#277,.T.);
#279=ORIENTED_EDGE('',*,*,#259,.F.);
#281=ORIENTED_EDGE('',*,*,#280,.F.);
#282=EDGE_LOOP('',(#276,#278,#279,#281));
#283=FACE_OUTER_BOUND('',#282,.F.);
#284=ADVANCED_FACE('',(#283),#274,.T.);
#285=CARTESIAN_POINT('',(0.E0,-3.25E1,0.E0));
#286=DIRECTION('',(0.E0,1.E0,0.E0));
#287=DIRECTION('',(-1.E0,0.E0,0.E0));
#288=AXIS2_PLACEMENT_3D('',#285,#286,#287);
#289=CYLINDRICAL_SURFACE('',#288,6.1E0);
#290=ORIENTED_EDGE('',*,*,#275,.F.);
#292=ORIENTED_EDGE('',*,*,#291,.T.);
#294=ORIENTED_EDGE('',*,*,#293,.T.);
#296=ORIENTED_EDGE('',*,*,#295,.F.);
#297=EDGE_LOOP('',(#290,#292,#294,#296));
#298=FACE_OUTER_BOUND('',#297,.F.);
#299=ADVANCED_FACE('',(#298),#289,.T.);
#300=CARTESIAN_POINT('',(0.E0,-3.25E1,0.E0));
#301=DIRECTION('',(0.E0,1.E0,0.E0));
#302=DIRECTION('',(-1.E0,0.E0,0.E0));
#303=AXIS2_PLACEMENT_3D('',#300,#301,#302);
#304=CYLINDRICAL_SURFACE('',#303,6.1E0);
#306=ORIENTED_EDGE('',*,*,#305,.F.);
#307=ORIENTED_EDGE('',*,*,#295,.T.);
#309=ORIENTED_EDGE('',*,*,#308,.T.);
#310=ORIENTED_EDGE('',*,*,#291,.F.);
#311=EDGE_LOOP('',(#306,#307,#309,#310));
#312=FACE_OUTER_BOUND('',#311,.F.);
#313=ADVANCED_FACE('',(#312),#304,.T.);
#314=CARTESIAN_POINT('',(0.E0,-1.725000000318E1,0.E0));
#315=DIRECTION('',(0.E0,1.E0,0.E0));
#316=DIRECTION('',(0.E0,0.E0,-1.E0));
#317=AXIS2_PLACEMENT_3D('',#314,#315,#316);
#318=CONICAL_SURFACE('',#317,5.849999996815E0,4.5E1);
#319=ORIENTED_EDGE('',*,*,#305,.T.);
#320=ORIENTED_EDGE('',*,*,#280,.T.);
#321=ORIENTED_EDGE('',*,*,#261,.F.);
#322=ORIENTED_EDGE('',*,*,#277,.F.);
#323=EDGE_LOOP('',(#319,#320,#321,#322));
#324=FACE_OUTER_BOUND('',#323,.F.);
#325=ADVANCED_FACE('',(#324),#318,.T.);
#326=CARTESIAN_POINT('',(0.E0,3.25E1,0.E0));
#327=DIRECTION('',(0.E0,1.E0,0.E0));
#328=DIRECTION('',(0.E0,0.E0,1.E0));
#329=AXIS2_PLACEMENT_3D('',#326,#327,#328);
#330=PLANE('',#329);
#332=ORIENTED_EDGE('',*,*,#331,.T.);
#334=ORIENTED_EDGE('',*,*,#333,.T.);
#336=ORIENTED_EDGE('',*,*,#335,.T.);
#338=ORIENTED_EDGE('',*,*,#337,.T.);
#339=EDGE_LOOP('',(#332,#334,#336,#338));
#340=FACE_OUTER_BOUND('',#339,.F.);
#341=ORIENTED_EDGE('',*,*,#293,.F.);
#342=ORIENTED_EDGE('',*,*,#308,.F.);
#343=EDGE_LOOP('',(#341,#342));
#344=FACE_BOUND('',#343,.F.);
#345=ADVANCED_FACE('',(#340,#344),#330,.F.);
#346=CARTESIAN_POINT('',(6.E0,3.25E1,-8.E0));
#347=DIRECTION('',(0.E0,0.E0,-1.E0));
#348=DIRECTION('',(-1.E0,0.E0,0.E0));
#349=AXIS2_PLACEMENT_3D('',#346,#347,#348);
#350=PLANE('',#349);
#351=ORIENTED_EDGE('',*,*,#331,.F.);
#353=ORIENTED_EDGE('',*,*,#352,.T.);
#355=ORIENTED_EDGE('',*,*,#354,.T.);
#357=ORIENTED_EDGE('',*,*,#356,.F.);
#358=EDGE_LOOP('',(#351,#353,#355,#357));
#359=FACE_OUTER_BOUND('',#358,.F.);
#360=ADVANCED_FACE('',(#359),#350,.T.);
#361=CARTESIAN_POINT('',(0.E0,3.25E1,0.E0));
#362=DIRECTION('',(0.E0,1.E0,0.E0));
#363=DIRECTION('',(0.E0,0.E0,1.E0));
#364=AXIS2_PLACEMENT_3D('',#361,#362,#363);
#365=CYLINDRICAL_SURFACE('',#364,1.E1);
#366=ORIENTED_EDGE('',*,*,#337,.F.);
#368=ORIENTED_EDGE('',*,*,#367,.T.);
#370=ORIENTED_EDGE('',*,*,#369,.T.);
#371=ORIENTED_EDGE('',*,*,#352,.F.);
#372=EDGE_LOOP('',(#366,#368,#370,#371));
#373=FACE_OUTER_BOUND('',#372,.F.);
#374=ADVANCED_FACE('',(#373),#365,.T.);
#375=CARTESIAN_POINT('',(-6.E0,3.25E1,8.E0));
#376=DIRECTION('',(0.E0,0.E0,1.E0));
#377=DIRECTION('',(1.E0,0.E0,0.E0));
#378=AXIS2_PLACEMENT_3D('',#375,#376,#377);
#379=PLANE('',#378);
#380=ORIENTED_EDGE('',*,*,#335,.F.);
#382=ORIENTED_EDGE('',*,*,#381,.T.);
#384=ORIENTED_EDGE('',*,*,#383,.T.);
#385=ORIENTED_EDGE('',*,*,#367,.F.);
#386=EDGE_LOOP('',(#380,#382,#384,#385));
#387=FACE_OUTER_BOUND('',#386,.F.);
#388=ADVANCED_FACE('',(#387),#379,.T.);
#389=CARTESIAN_POINT('',(0.E0,3.25E1,0.E0));
#390=DIRECTION('',(0.E0,1.E0,0.E0));
#391=DIRECTION('',(0.E0,0.E0,1.E0));
#392=AXIS2_PLACEMENT_3D('',#389,#390,#391);
#393=CYLINDRICAL_SURFACE('',#392,1.E1);
#394=ORIENTED_EDGE('',*,*,#333,.F.);
#395=ORIENTED_EDGE('',*,*,#356,.T.);
#397=ORIENTED_EDGE('',*,*,#396,.T.);
#398=ORIENTED_EDGE('',*,*,#381,.F.);
#399=EDGE_LOOP('',(#394,#395,#397,#398));
#400=FACE_OUTER_BOUND('',#399,.F.);
#401=ADVANCED_FACE('',(#400),#393,.T.);
#402=CARTESIAN_POINT('',(0.E0,3.55E1,0.E0));
#403=DIRECTION('',(0.E0,1.E0,0.E0));
#404=DIRECTION('',(0.E0,0.E0,1.E0));
#405=AXIS2_PLACEMENT_3D('',#402,#403,#404);
#406=PLANE('',#405);
#407=ORIENTED_EDGE('',*,*,#354,.F.);
#408=ORIENTED_EDGE('',*,*,#369,.F.);
#409=ORIENTED_EDGE('',*,*,#383,.F.);
#410=ORIENTED_EDGE('',*,*,#396,.F.);
#411=EDGE_LOOP('',(#407,#408,#409,#410));
#412=FACE_OUTER_BOUND('',#411,.F.);
#413=ADVANCED_FACE('',(#412),#406,.T.);
#414=CLOSED_SHELL('',(#197,#212,#225,#240,#253,#269,#284,#299,#313,#325,#345,
#360,#374,#388,#401,#413));
#415=CARTESIAN_POINT('',(0.E0,-3.25E1,0.E0));
#416=DIRECTION('',(0.E0,-1.E0,0.E0));
#417=DIRECTION('',(-1.E0,0.E0,0.E0));
#418=AXIS2_PLACEMENT_3D('',#415,#416,#417);
#420=DIRECTION('',(0.E0,1.E0,0.E0));
#421=VECTOR('',#420,1.3E1);
#422=CARTESIAN_POINT('',(-4.25E0,-3.25E1,0.E0));
#423=LINE('',#422,#421);
#424=CARTESIAN_POINT('',(0.E0,-3.25E1,0.E0));
#425=DIRECTION('',(0.E0,-1.E0,0.E0));
#426=DIRECTION('',(1.E0,0.E0,0.E0));
#427=AXIS2_PLACEMENT_3D('',#424,#425,#426);
#429=DIRECTION('',(0.E0,1.E0,0.E0));
#430=VECTOR('',#429,1.3E1);
#431=CARTESIAN_POINT('',(4.25E0,-3.25E1,0.E0));
#432=LINE('',#431,#430);
#433=CARTESIAN_POINT('',(0.E0,-1.95E1,0.E0));
#434=DIRECTION('',(0.E0,-1.E0,0.E0));
#435=DIRECTION('',(1.E0,0.E0,0.E0));
#436=AXIS2_PLACEMENT_3D('',#433,#434,#435);
#438=CARTESIAN_POINT('',(0.E0,-1.95E1,0.E0));
#439=DIRECTION('',(0.E0,-1.E0,0.E0));
#440=DIRECTION('',(-1.E0,0.E0,0.E0));
#441=AXIS2_PLACEMENT_3D('',#438,#439,#440);
#443=CARTESIAN_POINT('',(0.E0,-1.95E1,0.E0));
#444=DIRECTION('',(0.E0,1.E0,0.E0));
#445=DIRECTION('',(-1.E0,0.E0,0.E0));
#446=AXIS2_PLACEMENT_3D('',#443,#444,#445);
#448=CARTESIAN_POINT('',(0.E0,-1.95E1,0.E0));
#449=DIRECTION('',(0.E0,1.E0,0.E0));
#450=DIRECTION('',(1.E0,0.E0,0.E0));
#451=AXIS2_PLACEMENT_3D('',#448,#449,#450);
#453=CARTESIAN_POINT('',(4.25E0,-3.25E1,0.E0));
#454=CARTESIAN_POINT('',(-4.25E0,-3.25E1,0.E0));
#455=VERTEX_POINT('',#453);
#456=VERTEX_POINT('',#454);
#457=CARTESIAN_POINT('',(4.25E0,-1.95E1,0.E0));
#458=CARTESIAN_POINT('',(-4.25E0,-1.95E1,0.E0));
#459=VERTEX_POINT('',#457);
#460=VERTEX_POINT('',#458);
#461=CARTESIAN_POINT('',(5.E0,-1.95E1,0.E0));
#462=CARTESIAN_POINT('',(-5.E0,-1.95E1,0.E0));
#463=VERTEX_POINT('',#461);
#464=VERTEX_POINT('',#462);
#465=CARTESIAN_POINT('',(0.E0,-3.25E1,0.E0));
#466=DIRECTION('',(0.E0,-1.E0,0.E0));
#467=DIRECTION('',(1.E0,0.E0,0.E0));
#468=AXIS2_PLACEMENT_3D('',#465,#466,#467);
#469=CYLINDRICAL_SURFACE('',#468,4.25E0);
#471=ORIENTED_EDGE('',*,*,#470,.T.);
#473=ORIENTED_EDGE('',*,*,#472,.T.);
#475=ORIENTED_EDGE('',*,*,#474,.F.);
#477=ORIENTED_EDGE('',*,*,#476,.F.);
#478=EDGE_LOOP('',(#471,#473,#475,#477));
#479=FACE_OUTER_BOUND('',#478,.F.);
#480=ADVANCED_FACE('',(#479),#469,.T.);
#481=CARTESIAN_POINT('',(0.E0,-3.25E1,0.E0));
#482=DIRECTION('',(0.E0,-1.E0,0.E0));
#483=DIRECTION('',(1.E0,0.E0,0.E0));
#484=AXIS2_PLACEMENT_3D('',#481,#482,#483);
#485=CYLINDRICAL_SURFACE('',#484,4.25E0);
#487=ORIENTED_EDGE('',*,*,#486,.T.);
#488=ORIENTED_EDGE('',*,*,#476,.T.);
#490=ORIENTED_EDGE('',*,*,#489,.F.);
#491=ORIENTED_EDGE('',*,*,#472,.F.);
#492=EDGE_LOOP('',(#487,#488,#490,#491));
#493=FACE_OUTER_BOUND('',#492,.F.);
#494=ADVANCED_FACE('',(#493),#485,.T.);
#495=CARTESIAN_POINT('',(0.E0,-1.95E1,0.E0));
#496=DIRECTION('',(0.E0,-1.E0,0.E0));
#497=DIRECTION('',(1.E0,0.E0,0.E0));
#498=AXIS2_PLACEMENT_3D('',#495,#496,#497);
#499=PLANE('',#498);
#501=ORIENTED_EDGE('',*,*,#500,.T.);
#503=ORIENTED_EDGE('',*,*,#502,.T.);
#504=EDGE_LOOP('',(#501,#503));
#505=FACE_OUTER_BOUND('',#504,.F.);
#506=ORIENTED_EDGE('',*,*,#489,.T.);
#507=ORIENTED_EDGE('',*,*,#474,.T.);
#508=EDGE_LOOP('',(#506,#507));
#509=FACE_BOUND('',#508,.F.);
#510=ADVANCED_FACE('',(#505,#509),#499,.T.);
#511=OPEN_SHELL('',(#480,#494,#510));
#512=MANIFOLD_SOLID_BREP('',#414);
#513=SHELL_BASED_SURFACE_MODEL('',(#511));
#515=DIMENSIONAL_EXPONENTS(0.E0,0.E0,0.E0,0.E0,0.E0,0.E0,0.E0);
#517=PLANE_ANGLE_MEASURE_WITH_UNIT(PLANE_ANGLE_MEASURE(1.745329251994E-2),#516);
#518=(CONVERSION_BASED_UNIT('DEGREE',#517)NAMED_UNIT(*)PLANE_ANGLE_UNIT());
#520=UNCERTAINTY_MEASURE_WITH_UNIT(LENGTH_MEASURE(1.E-2),#514,'closure',
'Maximum model space distance between geometric entities at asserted connectivities');
#521=(GEOMETRIC_REPRESENTATION_CONTEXT(3)GLOBAL_UNCERTAINTY_ASSIGNED_CONTEXT((
#520))GLOBAL_UNIT_ASSIGNED_CONTEXT((#514,#518,#519))REPRESENTATION_CONTEXT
('ID1','3'));
#524=CARTESIAN_POINT('',(0.E0,0.E0,0.E0));
#525=DIRECTION('',(0.E0,0.E0,1.E0));
#526=DIRECTION('',(1.E0,0.E0,0.E0));
#529=SHAPE_REPRESENTATION_RELATIONSHIP('','',#528,#522);
#530=SHAPE_REPRESENTATION_RELATIONSHIP('','',#528,#523);
#531=APPLICATION_CONTEXT(
'CONFIGURATION CONTROLLED 3D DESIGNS OF MECHANICAL PARTS AND ASSEMBLIES');
#532=APPLICATION_PROTOCOL_DEFINITION('international standard',
'config_control_design',1994,#531);
#533=DESIGN_CONTEXT('',#531,'design');
#534=MECHANICAL_CONTEXT('',#531,'mechanical');
#535=PRODUCT('JGA00225_AXE_D12-2_L66','JGA00225_AXE_D12-2_L66','NOT SPECIFIED',(
#534));
#536=PRODUCT_DEFINITION_FORMATION_WITH_SPECIFIED_SOURCE('7','LAST_VERSION',#535,
.MADE.);
#540=PRODUCT_CATEGORY('part','');
#541=PRODUCT_RELATED_PRODUCT_CATEGORY('detail','',(#535));
#542=PRODUCT_CATEGORY_RELATIONSHIP('','',#540,#541);
#543=SECURITY_CLASSIFICATION_LEVEL('unclassified');
#544=SECURITY_CLASSIFICATION('','',#543);
#545=CC_DESIGN_SECURITY_CLASSIFICATION(#544,(#536));
#546=APPROVAL_STATUS('approved');
#547=APPROVAL(#546,'');
#548=CC_DESIGN_APPROVAL(#547,(#544,#536,#537));
#549=CALENDAR_DATE(121,5,8);
#550=COORDINATED_UNIVERSAL_TIME_OFFSET(2,0,.AHEAD.);
#551=LOCAL_TIME(19,43,1.9E1,#550);
#552=DATE_AND_TIME(#549,#551);
#553=APPROVAL_DATE_TIME(#552,#547);
#554=DATE_TIME_ROLE('creation_date');
#555=CC_DESIGN_DATE_AND_TIME_ASSIGNMENT(#552,#554,(#537));
#556=DATE_TIME_ROLE('classification_date');
#557=CC_DESIGN_DATE_AND_TIME_ASSIGNMENT(#552,#556,(#544));
#558=PERSON('UNSPECIFIED','UNSPECIFIED',$,$,$,$);
#559=ORGANIZATION('UNSPECIFIED','UNSPECIFIED','UNSPECIFIED');
#560=PERSON_AND_ORGANIZATION(#558,#559);
#561=APPROVAL_ROLE('approver');
#562=APPROVAL_PERSON_ORGANIZATION(#560,#547,#561);
#563=PERSON_AND_ORGANIZATION_ROLE('creator');
#564=CC_DESIGN_PERSON_AND_ORGANIZATION_ASSIGNMENT(#560,#563,(#536,#537));
#565=PERSON_AND_ORGANIZATION_ROLE('design_supplier');
#566=CC_DESIGN_PERSON_AND_ORGANIZATION_ASSIGNMENT(#560,#565,(#536));
#567=PERSON_AND_ORGANIZATION_ROLE('classification_officer');
#568=CC_DESIGN_PERSON_AND_ORGANIZATION_ASSIGNMENT(#560,#567,(#544));
#569=PERSON_AND_ORGANIZATION_ROLE('design_owner');
#570=CC_DESIGN_PERSON_AND_ORGANIZATION_ASSIGNMENT(#560,#569,(#535));
#6=CIRCLE('',#5,4.422649730810E0);
#11=CIRCLE('',#10,4.422649730810E0);
#24=CIRCLE('',#23,5.E0);
#37=CIRCLE('',#36,5.E0);
#42=CIRCLE('',#41,5.E0);
#47=CIRCLE('',#46,5.E0);
#52=CIRCLE('',#51,5.6E0);
#57=CIRCLE('',#56,5.6E0);
#66=CIRCLE('',#65,6.1E0);
#75=CIRCLE('',#74,6.1E0);
#80=CIRCLE('',#79,6.1E0);
#89=CIRCLE('',#88,6.1E0);
#102=CIRCLE('',#101,1.E1);
#111=CIRCLE('',#110,1.E1);
#136=CIRCLE('',#135,1.E1);
#145=CIRCLE('',#144,1.E1);
#191=EDGE_CURVE('',#172,#173,#6,.T.);
#193=EDGE_CURVE('',#173,#172,#11,.T.);
#204=EDGE_CURVE('',#173,#177,#19,.T.);
#206=EDGE_CURVE('',#176,#177,#37,.T.);
#208=EDGE_CURVE('',#172,#176,#15,.T.);
#220=EDGE_CURVE('',#177,#176,#24,.T.);
#232=EDGE_CURVE('',#176,#169,#28,.T.);
#234=EDGE_CURVE('',#168,#169,#42,.T.);
#236=EDGE_CURVE('',#177,#168,#32,.T.);
#248=EDGE_CURVE('',#168,#169,#47,.T.);
#259=EDGE_CURVE('',#184,#185,#52,.T.);
#261=EDGE_CURVE('',#185,#184,#57,.T.);
#275=EDGE_CURVE('',#180,#181,#66,.T.);
#277=EDGE_CURVE('',#181,#185,#93,.T.);
#280=EDGE_CURVE('',#180,#184,#61,.T.);
#291=EDGE_CURVE('',#180,#148,#70,.T.);
#293=EDGE_CURVE('',#148,#149,#75,.T.);
#295=EDGE_CURVE('',#181,#149,#84,.T.);
#305=EDGE_CURVE('',#181,#180,#80,.T.);
#308=EDGE_CURVE('',#149,#148,#89,.T.);
#331=EDGE_CURVE('',#152,#153,#97,.T.);
#333=EDGE_CURVE('',#153,#155,#102,.T.);
#335=EDGE_CURVE('',#155,#157,#106,.T.);
#337=EDGE_CURVE('',#157,#152,#111,.T.);
#352=EDGE_CURVE('',#152,#160,#115,.T.);
#354=EDGE_CURVE('',#160,#161,#131,.T.);
#356=EDGE_CURVE('',#153,#161,#127,.T.);
#367=EDGE_CURVE('',#157,#165,#119,.T.);
#369=EDGE_CURVE('',#165,#160,#136,.T.);
#381=EDGE_CURVE('',#155,#163,#123,.T.);
#383=EDGE_CURVE('',#163,#165,#140,.T.);
#396=EDGE_CURVE('',#161,#163,#145,.T.);
#419=CIRCLE('',#418,4.25E0);
#428=CIRCLE('',#427,4.25E0);
#437=CIRCLE('',#436,4.25E0);
#442=CIRCLE('',#441,4.25E0);
#447=CIRCLE('',#446,5.E0);
#452=CIRCLE('',#451,5.E0);
#470=EDGE_CURVE('',#456,#455,#419,.T.);
#472=EDGE_CURVE('',#455,#459,#432,.T.);
#474=EDGE_CURVE('',#460,#459,#442,.T.);
#476=EDGE_CURVE('',#456,#460,#423,.T.);
#486=EDGE_CURVE('',#455,#456,#428,.T.);
#489=EDGE_CURVE('',#459,#460,#437,.T.);
#500=EDGE_CURVE('',#464,#463,#447,.T.);
#502=EDGE_CURVE('',#463,#464,#452,.T.);
#514=(LENGTH_UNIT()NAMED_UNIT(*)SI_UNIT(.MILLI.,.METRE.));
#516=(NAMED_UNIT(*)PLANE_ANGLE_UNIT()SI_UNIT($,.RADIAN.));
#519=(NAMED_UNIT(*)SI_UNIT($,.STERADIAN.)SOLID_ANGLE_UNIT());
#522=ADVANCED_BREP_SHAPE_REPRESENTATION('',(#512),#521);
#523=MANIFOLD_SURFACE_SHAPE_REPRESENTATION('',(#513),#521);
#527=AXIS2_PLACEMENT_3D('',#524,#525,#526);
#528=SHAPE_REPRESENTATION('',(#527),#521);
#537=PRODUCT_DEFINITION('design','',#536,#533);
#538=PRODUCT_DEFINITION_SHAPE('','SHAPE FOR JGA00225_AXE_D12-2_L66.',#537);
#539=SHAPE_DEFINITION_REPRESENTATION(#538,#528);
ENDSEC;
END-ISO-10303-21;
