ISO-10303-21;
HEADER;
FILE_DESCRIPTION(('CATIA V5 STEP Exchange','CAx-IF Rec.Pracs.--- Model Styling and Organization---1.4--- 2014-01-23','CAx-IF Rec.Pracs.---3D Tessellated Data Validation Properties---0.5---2014-09-14'),'2;1');

FILE_NAME('D:\\MICRO ENTREPRISE\\PIECES 3D\\TECH-DRIVE\\HK40\\MODIF CAPOT ARRIERE 12-18-2021\\PLAQUE CAPOT ARRIERE HK40.stp','2021-08-16T09:17:24+00:00',('none'),('none'),'CATIA Version 5-6 Release 2018 SP6','CATIA V5 STEP AP242','none');

FILE_SCHEMA(('AP242_MANAGED_MODEL_BASED_3D_ENGINEERING_MIM_LF  {1 0 10303 442 1 1 4}'));

ENDSEC;
DATA;
#5=PRODUCT('PLAQUE CAPOT ARRIERE HK40','','',(#2)) ;
#2=PRODUCT_CONTEXT(' ',#1,'mechanical') ;
#1=APPLICATION_CONTEXT('managed model based 3d engineering') ;
#10=PRODUCT_DEFINITION('',' ',#6,#3) ;
#3=PRODUCT_DEFINITION_CONTEXT('part definition',#1,' ') ;
#11=PRODUCT_DEFINITION_SHAPE(' ',' ',#10) ;
#573=MECHANICAL_DESIGN_GEOMETRIC_PRESENTATION_REPRESENTATION(' ',(#29),#16) ;
#19=SHAPE_REPRESENTATION(' ',(#18),#16) ;
#7=PRODUCT_CATEGORY('part','specification') ;
#17=CARTESIAN_POINT(' ',(0.,0.,0.)) ;
#31=CARTESIAN_POINT('Axis2P3D Location',(-63.5,-36.,1.5)) ;
#36=CARTESIAN_POINT('Line Origine',(-68.5,-36.,1.5)) ;
#40=CARTESIAN_POINT('Vertex',(-68.5,-36.,0.)) ;
#42=CARTESIAN_POINT('Vertex',(-68.5,-36.,3.)) ;
#45=CARTESIAN_POINT('Axis2P3D Location',(-63.5,-36.,0.)) ;
#49=CARTESIAN_POINT('Vertex',(-63.5,-41.,0.)) ;
#52=CARTESIAN_POINT('Line Origine',(-63.5,-41.,1.5)) ;
#56=CARTESIAN_POINT('Vertex',(-63.5,-41.,3.)) ;
#59=CARTESIAN_POINT('Axis2P3D Location',(-63.5,-36.,3.)) ;
#71=CARTESIAN_POINT('Axis2P3D Location',(63.5,-41.,0.)) ;
#76=CARTESIAN_POINT('Line Origine',(0.,-41.,0.)) ;
#80=CARTESIAN_POINT('Vertex',(63.5,-41.,0.)) ;
#83=CARTESIAN_POINT('Line Origine',(63.5,-41.,1.5)) ;
#87=CARTESIAN_POINT('Vertex',(63.5,-41.,3.)) ;
#90=CARTESIAN_POINT('Line Origine',(0.,-41.,3.)) ;
#102=CARTESIAN_POINT('Axis2P3D Location',(63.5,-36.,1.5)) ;
#107=CARTESIAN_POINT('Axis2P3D Location',(63.5,-36.,0.)) ;
#111=CARTESIAN_POINT('Vertex',(68.5,-36.,0.)) ;
#114=CARTESIAN_POINT('Line Origine',(68.5,-36.,1.5)) ;
#118=CARTESIAN_POINT('Vertex',(68.5,-36.,3.)) ;
#121=CARTESIAN_POINT('Axis2P3D Location',(63.5,-36.,3.)) ;
#133=CARTESIAN_POINT('Axis2P3D Location',(68.5,36.,0.)) ;
#138=CARTESIAN_POINT('Line Origine',(68.5,0.,0.)) ;
#142=CARTESIAN_POINT('Vertex',(68.5,36.,0.)) ;
#145=CARTESIAN_POINT('Line Origine',(68.5,36.,1.5)) ;
#149=CARTESIAN_POINT('Vertex',(68.5,36.,3.)) ;
#152=CARTESIAN_POINT('Line Origine',(68.5,0.,3.)) ;
#164=CARTESIAN_POINT('Axis2P3D Location',(63.5,36.,1.5)) ;
#169=CARTESIAN_POINT('Axis2P3D Location',(63.5,36.,0.)) ;
#173=CARTESIAN_POINT('Vertex',(63.5,41.,0.)) ;
#176=CARTESIAN_POINT('Line Origine',(63.5,41.,1.5)) ;
#180=CARTESIAN_POINT('Vertex',(63.5,41.,3.)) ;
#183=CARTESIAN_POINT('Axis2P3D Location',(63.5,36.,3.)) ;
#195=CARTESIAN_POINT('Axis2P3D Location',(-63.5,41.,0.)) ;
#200=CARTESIAN_POINT('Line Origine',(0.,41.,0.)) ;
#204=CARTESIAN_POINT('Vertex',(-63.5,41.,0.)) ;
#207=CARTESIAN_POINT('Line Origine',(-63.5,41.,1.5)) ;
#211=CARTESIAN_POINT('Vertex',(-63.5,41.,3.)) ;
#214=CARTESIAN_POINT('Line Origine',(0.,41.,3.)) ;
#226=CARTESIAN_POINT('Axis2P3D Location',(-63.5,36.,1.5)) ;
#231=CARTESIAN_POINT('Axis2P3D Location',(-63.5,36.,0.)) ;
#235=CARTESIAN_POINT('Vertex',(-68.5,36.,0.)) ;
#238=CARTESIAN_POINT('Line Origine',(-68.5,36.,1.5)) ;
#242=CARTESIAN_POINT('Vertex',(-68.5,36.,3.)) ;
#245=CARTESIAN_POINT('Axis2P3D Location',(-63.5,36.,3.)) ;
#257=CARTESIAN_POINT('Axis2P3D Location',(-68.5,-36.,0.)) ;
#262=CARTESIAN_POINT('Line Origine',(-68.5,0.,0.)) ;
#267=CARTESIAN_POINT('Line Origine',(-68.5,0.,3.)) ;
#279=CARTESIAN_POINT('Axis2P3D Location',(62.5,-35.,1.5)) ;
#284=CARTESIAN_POINT('Axis2P3D Location',(62.5,-35.,3.)) ;
#288=CARTESIAN_POINT('Vertex',(65.75,-35.,3.)) ;
#290=CARTESIAN_POINT('Vertex',(59.25,-35.,3.)) ;
#293=CARTESIAN_POINT('Line Origine',(59.25,-35.,1.5)) ;
#297=CARTESIAN_POINT('Vertex',(59.25,-35.,0.)) ;
#300=CARTESIAN_POINT('Axis2P3D Location',(62.5,-35.,0.)) ;
#304=CARTESIAN_POINT('Vertex',(65.75,-35.,0.)) ;
#307=CARTESIAN_POINT('Line Origine',(65.75,-35.,1.5)) ;
#319=CARTESIAN_POINT('Axis2P3D Location',(62.5,-35.,3.)) ;
#324=CARTESIAN_POINT('Axis2P3D Location',(62.5,-35.,0.)) ;
#336=CARTESIAN_POINT('Axis2P3D Location',(62.5,35.,1.5)) ;
#341=CARTESIAN_POINT('Axis2P3D Location',(62.5,35.,3.)) ;
#345=CARTESIAN_POINT('Vertex',(65.75,35.,3.)) ;
#347=CARTESIAN_POINT('Vertex',(59.25,35.,3.)) ;
#350=CARTESIAN_POINT('Line Origine',(59.25,35.,1.5)) ;
#354=CARTESIAN_POINT('Vertex',(59.25,35.,0.)) ;
#357=CARTESIAN_POINT('Axis2P3D Location',(62.5,35.,0.)) ;
#361=CARTESIAN_POINT('Vertex',(65.75,35.,0.)) ;
#364=CARTESIAN_POINT('Line Origine',(65.75,35.,1.5)) ;
#376=CARTESIAN_POINT('Axis2P3D Location',(62.5,35.,3.)) ;
#381=CARTESIAN_POINT('Axis2P3D Location',(62.5,35.,0.)) ;
#393=CARTESIAN_POINT('Axis2P3D Location',(-62.5,35.,1.5)) ;
#398=CARTESIAN_POINT('Axis2P3D Location',(-62.5,35.,3.)) ;
#402=CARTESIAN_POINT('Vertex',(-59.25,35.,3.)) ;
#404=CARTESIAN_POINT('Vertex',(-65.75,35.,3.)) ;
#407=CARTESIAN_POINT('Line Origine',(-65.75,35.,1.5)) ;
#411=CARTESIAN_POINT('Vertex',(-65.75,35.,0.)) ;
#414=CARTESIAN_POINT('Axis2P3D Location',(-62.5,35.,0.)) ;
#418=CARTESIAN_POINT('Vertex',(-59.25,35.,0.)) ;
#421=CARTESIAN_POINT('Line Origine',(-59.25,35.,1.5)) ;
#433=CARTESIAN_POINT('Axis2P3D Location',(-62.5,35.,3.)) ;
#438=CARTESIAN_POINT('Axis2P3D Location',(-62.5,35.,0.)) ;
#450=CARTESIAN_POINT('Axis2P3D Location',(-62.5,-35.,1.5)) ;
#455=CARTESIAN_POINT('Axis2P3D Location',(-62.5,-35.,3.)) ;
#459=CARTESIAN_POINT('Vertex',(-59.25,-35.,3.)) ;
#461=CARTESIAN_POINT('Vertex',(-65.75,-35.,3.)) ;
#464=CARTESIAN_POINT('Line Origine',(-65.75,-35.,1.5)) ;
#468=CARTESIAN_POINT('Vertex',(-65.75,-35.,0.)) ;
#471=CARTESIAN_POINT('Axis2P3D Location',(-62.5,-35.,0.)) ;
#475=CARTESIAN_POINT('Vertex',(-59.25,-35.,0.)) ;
#478=CARTESIAN_POINT('Line Origine',(-59.25,-35.,1.5)) ;
#490=CARTESIAN_POINT('Axis2P3D Location',(-62.5,-35.,3.)) ;
#495=CARTESIAN_POINT('Axis2P3D Location',(-62.5,-35.,0.)) ;
#507=CARTESIAN_POINT('Axis2P3D Location',(0.,0.,0.)) ;
#539=CARTESIAN_POINT('Axis2P3D Location',(0.,0.,3.)) ;
#8=PRODUCT_RELATED_PRODUCT_CATEGORY('part',$,(#5)) ;
#29=STYLED_ITEM(' ',(#28),#21) ;
#28=PRESENTATION_STYLE_ASSIGNMENT((#27)) ;
#27=SURFACE_STYLE_USAGE(.BOTH.,#26) ;
#26=SURFACE_SIDE_STYLE(' ',(#25)) ;
#25=SURFACE_STYLE_FILL_AREA(#24) ;
#24=FILL_AREA_STYLE(' ',(#23)) ;
#23=FILL_AREA_STYLE_COLOUR(' ',#22) ;
#38=VECTOR('Line Direction',#37,1.) ;
#54=VECTOR('Line Direction',#53,1.) ;
#78=VECTOR('Line Direction',#77,1.) ;
#85=VECTOR('Line Direction',#84,1.) ;
#92=VECTOR('Line Direction',#91,1.) ;
#116=VECTOR('Line Direction',#115,1.) ;
#140=VECTOR('Line Direction',#139,1.) ;
#147=VECTOR('Line Direction',#146,1.) ;
#154=VECTOR('Line Direction',#153,1.) ;
#178=VECTOR('Line Direction',#177,1.) ;
#202=VECTOR('Line Direction',#201,1.) ;
#209=VECTOR('Line Direction',#208,1.) ;
#216=VECTOR('Line Direction',#215,1.) ;
#240=VECTOR('Line Direction',#239,1.) ;
#264=VECTOR('Line Direction',#263,1.) ;
#269=VECTOR('Line Direction',#268,1.) ;
#295=VECTOR('Line Direction',#294,1.) ;
#309=VECTOR('Line Direction',#308,1.) ;
#352=VECTOR('Line Direction',#351,1.) ;
#366=VECTOR('Line Direction',#365,1.) ;
#409=VECTOR('Line Direction',#408,1.) ;
#423=VECTOR('Line Direction',#422,1.) ;
#466=VECTOR('Line Direction',#465,1.) ;
#480=VECTOR('Line Direction',#479,1.) ;
#32=DIRECTION('Axis2P3D Direction',(0.,0.,1.)) ;
#33=DIRECTION('Axis2P3D XDirection',(-1.,-0.,-0.)) ;
#37=DIRECTION('Vector Direction',(0.,0.,1.)) ;
#46=DIRECTION('Axis2P3D Direction',(0.,0.,1.)) ;
#53=DIRECTION('Vector Direction',(0.,0.,1.)) ;
#60=DIRECTION('Axis2P3D Direction',(0.,0.,1.)) ;
#72=DIRECTION('Axis2P3D Direction',(0.,1.,0.)) ;
#73=DIRECTION('Axis2P3D XDirection',(-1.,-0.,-0.)) ;
#77=DIRECTION('Vector Direction',(-1.,0.,0.)) ;
#84=DIRECTION('Vector Direction',(0.,0.,1.)) ;
#91=DIRECTION('Vector Direction',(-1.,0.,0.)) ;
#103=DIRECTION('Axis2P3D Direction',(0.,0.,1.)) ;
#104=DIRECTION('Axis2P3D XDirection',(-6.12323399574E-017,-1.,-0.)) ;
#108=DIRECTION('Axis2P3D Direction',(0.,0.,1.)) ;
#115=DIRECTION('Vector Direction',(0.,0.,1.)) ;
#122=DIRECTION('Axis2P3D Direction',(0.,0.,1.)) ;
#134=DIRECTION('Axis2P3D Direction',(-1.,0.,0.)) ;
#135=DIRECTION('Axis2P3D XDirection',(-0.,-1.,-0.)) ;
#139=DIRECTION('Vector Direction',(0.,-1.,0.)) ;
#146=DIRECTION('Vector Direction',(0.,0.,1.)) ;
#153=DIRECTION('Vector Direction',(0.,-1.,0.)) ;
#165=DIRECTION('Axis2P3D Direction',(0.,0.,1.)) ;
#166=DIRECTION('Axis2P3D XDirection',(1.,-1.22464679915E-016,0.)) ;
#170=DIRECTION('Axis2P3D Direction',(0.,0.,1.)) ;
#177=DIRECTION('Vector Direction',(0.,0.,1.)) ;
#184=DIRECTION('Axis2P3D Direction',(0.,0.,1.)) ;
#196=DIRECTION('Axis2P3D Direction',(0.,-1.,0.)) ;
#197=DIRECTION('Axis2P3D XDirection',(1.,0.,0.)) ;
#201=DIRECTION('Vector Direction',(1.,0.,0.)) ;
#208=DIRECTION('Vector Direction',(0.,0.,1.)) ;
#215=DIRECTION('Vector Direction',(1.,0.,0.)) ;
#227=DIRECTION('Axis2P3D Direction',(0.,0.,1.)) ;
#228=DIRECTION('Axis2P3D XDirection',(1.83697019872E-016,1.,0.)) ;
#232=DIRECTION('Axis2P3D Direction',(0.,0.,1.)) ;
#239=DIRECTION('Vector Direction',(0.,0.,1.)) ;
#246=DIRECTION('Axis2P3D Direction',(0.,0.,1.)) ;
#258=DIRECTION('Axis2P3D Direction',(1.,0.,0.)) ;
#259=DIRECTION('Axis2P3D XDirection',(0.,1.,0.)) ;
#263=DIRECTION('Vector Direction',(0.,1.,0.)) ;
#268=DIRECTION('Vector Direction',(0.,1.,0.)) ;
#280=DIRECTION('Axis2P3D Direction',(0.,0.,1.)) ;
#281=DIRECTION('Axis2P3D XDirection',(-1.,-0.,-0.)) ;
#285=DIRECTION('Axis2P3D Direction',(0.,0.,1.)) ;
#294=DIRECTION('Vector Direction',(0.,0.,1.)) ;
#301=DIRECTION('Axis2P3D Direction',(0.,0.,1.)) ;
#308=DIRECTION('Vector Direction',(0.,0.,1.)) ;
#320=DIRECTION('Axis2P3D Direction',(0.,0.,1.)) ;
#325=DIRECTION('Axis2P3D Direction',(0.,0.,1.)) ;
#337=DIRECTION('Axis2P3D Direction',(0.,0.,1.)) ;
#338=DIRECTION('Axis2P3D XDirection',(-1.,-0.,-0.)) ;
#342=DIRECTION('Axis2P3D Direction',(0.,0.,1.)) ;
#351=DIRECTION('Vector Direction',(0.,0.,1.)) ;
#358=DIRECTION('Axis2P3D Direction',(0.,0.,1.)) ;
#365=DIRECTION('Vector Direction',(0.,0.,1.)) ;
#377=DIRECTION('Axis2P3D Direction',(0.,0.,1.)) ;
#382=DIRECTION('Axis2P3D Direction',(0.,0.,1.)) ;
#394=DIRECTION('Axis2P3D Direction',(0.,0.,1.)) ;
#395=DIRECTION('Axis2P3D XDirection',(-1.,-0.,-0.)) ;
#399=DIRECTION('Axis2P3D Direction',(0.,0.,1.)) ;
#408=DIRECTION('Vector Direction',(0.,0.,1.)) ;
#415=DIRECTION('Axis2P3D Direction',(0.,0.,1.)) ;
#422=DIRECTION('Vector Direction',(0.,0.,1.)) ;
#434=DIRECTION('Axis2P3D Direction',(0.,0.,1.)) ;
#439=DIRECTION('Axis2P3D Direction',(0.,0.,1.)) ;
#451=DIRECTION('Axis2P3D Direction',(0.,0.,1.)) ;
#452=DIRECTION('Axis2P3D XDirection',(-1.,-0.,-0.)) ;
#456=DIRECTION('Axis2P3D Direction',(0.,0.,1.)) ;
#465=DIRECTION('Vector Direction',(0.,0.,1.)) ;
#472=DIRECTION('Axis2P3D Direction',(0.,0.,1.)) ;
#479=DIRECTION('Vector Direction',(0.,0.,1.)) ;
#491=DIRECTION('Axis2P3D Direction',(0.,0.,1.)) ;
#496=DIRECTION('Axis2P3D Direction',(0.,0.,1.)) ;
#508=DIRECTION('Axis2P3D Direction',(0.,0.,1.)) ;
#509=DIRECTION('Axis2P3D XDirection',(-1.,-0.,-0.)) ;
#540=DIRECTION('Axis2P3D Direction',(0.,0.,1.)) ;
#541=DIRECTION('Axis2P3D XDirection',(-1.,-0.,-0.)) ;
#15=UNCERTAINTY_MEASURE_WITH_UNIT(LENGTH_MEASURE(0.005),#12,'distance_accuracy_value','CONFUSED CURVE UNCERTAINTY') ;
#18=AXIS2_PLACEMENT_3D(' ',#17,$,$) ;
#34=AXIS2_PLACEMENT_3D('Cylinder Axis2P3D',#31,#32,#33) ;
#47=AXIS2_PLACEMENT_3D('Circle Axis2P3D',#45,#46,$) ;
#61=AXIS2_PLACEMENT_3D('Circle Axis2P3D',#59,#60,$) ;
#74=AXIS2_PLACEMENT_3D('Plane Axis2P3D',#71,#72,#73) ;
#105=AXIS2_PLACEMENT_3D('Cylinder Axis2P3D',#102,#103,#104) ;
#109=AXIS2_PLACEMENT_3D('Circle Axis2P3D',#107,#108,$) ;
#123=AXIS2_PLACEMENT_3D('Circle Axis2P3D',#121,#122,$) ;
#136=AXIS2_PLACEMENT_3D('Plane Axis2P3D',#133,#134,#135) ;
#167=AXIS2_PLACEMENT_3D('Cylinder Axis2P3D',#164,#165,#166) ;
#171=AXIS2_PLACEMENT_3D('Circle Axis2P3D',#169,#170,$) ;
#185=AXIS2_PLACEMENT_3D('Circle Axis2P3D',#183,#184,$) ;
#198=AXIS2_PLACEMENT_3D('Plane Axis2P3D',#195,#196,#197) ;
#229=AXIS2_PLACEMENT_3D('Cylinder Axis2P3D',#226,#227,#228) ;
#233=AXIS2_PLACEMENT_3D('Circle Axis2P3D',#231,#232,$) ;
#247=AXIS2_PLACEMENT_3D('Circle Axis2P3D',#245,#246,$) ;
#260=AXIS2_PLACEMENT_3D('Plane Axis2P3D',#257,#258,#259) ;
#282=AXIS2_PLACEMENT_3D('Cylinder Axis2P3D',#279,#280,#281) ;
#286=AXIS2_PLACEMENT_3D('Circle Axis2P3D',#284,#285,$) ;
#302=AXIS2_PLACEMENT_3D('Circle Axis2P3D',#300,#301,$) ;
#321=AXIS2_PLACEMENT_3D('Circle Axis2P3D',#319,#320,$) ;
#326=AXIS2_PLACEMENT_3D('Circle Axis2P3D',#324,#325,$) ;
#339=AXIS2_PLACEMENT_3D('Cylinder Axis2P3D',#336,#337,#338) ;
#343=AXIS2_PLACEMENT_3D('Circle Axis2P3D',#341,#342,$) ;
#359=AXIS2_PLACEMENT_3D('Circle Axis2P3D',#357,#358,$) ;
#378=AXIS2_PLACEMENT_3D('Circle Axis2P3D',#376,#377,$) ;
#383=AXIS2_PLACEMENT_3D('Circle Axis2P3D',#381,#382,$) ;
#396=AXIS2_PLACEMENT_3D('Cylinder Axis2P3D',#393,#394,#395) ;
#400=AXIS2_PLACEMENT_3D('Circle Axis2P3D',#398,#399,$) ;
#416=AXIS2_PLACEMENT_3D('Circle Axis2P3D',#414,#415,$) ;
#435=AXIS2_PLACEMENT_3D('Circle Axis2P3D',#433,#434,$) ;
#440=AXIS2_PLACEMENT_3D('Circle Axis2P3D',#438,#439,$) ;
#453=AXIS2_PLACEMENT_3D('Cylinder Axis2P3D',#450,#451,#452) ;
#457=AXIS2_PLACEMENT_3D('Circle Axis2P3D',#455,#456,$) ;
#473=AXIS2_PLACEMENT_3D('Circle Axis2P3D',#471,#472,$) ;
#492=AXIS2_PLACEMENT_3D('Circle Axis2P3D',#490,#491,$) ;
#497=AXIS2_PLACEMENT_3D('Circle Axis2P3D',#495,#496,$) ;
#510=AXIS2_PLACEMENT_3D('Plane Axis2P3D',#507,#508,#509) ;
#542=AXIS2_PLACEMENT_3D('Plane Axis2P3D',#539,#540,#541) ;
#39=LINE('Line',#36,#38) ;
#55=LINE('Line',#52,#54) ;
#79=LINE('Line',#76,#78) ;
#86=LINE('Line',#83,#85) ;
#93=LINE('Line',#90,#92) ;
#117=LINE('Line',#114,#116) ;
#141=LINE('Line',#138,#140) ;
#148=LINE('Line',#145,#147) ;
#155=LINE('Line',#152,#154) ;
#179=LINE('Line',#176,#178) ;
#203=LINE('Line',#200,#202) ;
#210=LINE('Line',#207,#209) ;
#217=LINE('Line',#214,#216) ;
#241=LINE('Line',#238,#240) ;
#265=LINE('Line',#262,#264) ;
#270=LINE('Line',#267,#269) ;
#296=LINE('Line',#293,#295) ;
#310=LINE('Line',#307,#309) ;
#353=LINE('Line',#350,#352) ;
#367=LINE('Line',#364,#366) ;
#410=LINE('Line',#407,#409) ;
#424=LINE('Line',#421,#423) ;
#467=LINE('Line',#464,#466) ;
#481=LINE('Line',#478,#480) ;
#48=CIRCLE('generated circle',#47,5.) ;
#62=CIRCLE('generated circle',#61,5.) ;
#110=CIRCLE('generated circle',#109,5.) ;
#124=CIRCLE('generated circle',#123,5.) ;
#172=CIRCLE('generated circle',#171,5.) ;
#186=CIRCLE('generated circle',#185,5.) ;
#234=CIRCLE('generated circle',#233,5.) ;
#248=CIRCLE('generated circle',#247,5.) ;
#287=CIRCLE('generated circle',#286,3.25) ;
#303=CIRCLE('generated circle',#302,3.25) ;
#322=CIRCLE('generated circle',#321,3.25) ;
#327=CIRCLE('generated circle',#326,3.25) ;
#344=CIRCLE('generated circle',#343,3.25) ;
#360=CIRCLE('generated circle',#359,3.25) ;
#379=CIRCLE('generated circle',#378,3.25) ;
#384=CIRCLE('generated circle',#383,3.25) ;
#401=CIRCLE('generated circle',#400,3.25) ;
#417=CIRCLE('generated circle',#416,3.25) ;
#436=CIRCLE('generated circle',#435,3.25) ;
#441=CIRCLE('generated circle',#440,3.25) ;
#458=CIRCLE('generated circle',#457,3.25) ;
#474=CIRCLE('generated circle',#473,3.25) ;
#493=CIRCLE('generated circle',#492,3.25) ;
#498=CIRCLE('generated circle',#497,3.25) ;
#75=PLANE('',#74) ;
#137=PLANE('',#136) ;
#199=PLANE('',#198) ;
#261=PLANE('',#260) ;
#511=PLANE('',#510) ;
#543=PLANE('',#542) ;
#35=CYLINDRICAL_SURFACE('generated cylinder',#34,5.) ;
#106=CYLINDRICAL_SURFACE('generated cylinder',#105,5.) ;
#168=CYLINDRICAL_SURFACE('generated cylinder',#167,5.) ;
#230=CYLINDRICAL_SURFACE('generated cylinder',#229,5.) ;
#283=CYLINDRICAL_SURFACE('generated cylinder',#282,3.25) ;
#340=CYLINDRICAL_SURFACE('generated cylinder',#339,3.25) ;
#397=CYLINDRICAL_SURFACE('generated cylinder',#396,3.25) ;
#454=CYLINDRICAL_SURFACE('generated cylinder',#453,3.25) ;
#525=FACE_BOUND('',#522,.T.) ;
#529=FACE_BOUND('',#526,.T.) ;
#533=FACE_BOUND('',#530,.T.) ;
#537=FACE_BOUND('',#534,.T.) ;
#557=FACE_BOUND('',#554,.T.) ;
#561=FACE_BOUND('',#558,.T.) ;
#565=FACE_BOUND('',#562,.T.) ;
#569=FACE_BOUND('',#566,.T.) ;
#44=EDGE_CURVE('',#41,#43,#39,.T.) ;
#51=EDGE_CURVE('',#41,#50,#48,.T.) ;
#58=EDGE_CURVE('',#50,#57,#55,.T.) ;
#63=EDGE_CURVE('',#43,#57,#62,.T.) ;
#82=EDGE_CURVE('',#50,#81,#79,.F.) ;
#89=EDGE_CURVE('',#81,#88,#86,.T.) ;
#94=EDGE_CURVE('',#57,#88,#93,.F.) ;
#113=EDGE_CURVE('',#81,#112,#110,.T.) ;
#120=EDGE_CURVE('',#112,#119,#117,.T.) ;
#125=EDGE_CURVE('',#88,#119,#124,.T.) ;
#144=EDGE_CURVE('',#112,#143,#141,.F.) ;
#151=EDGE_CURVE('',#143,#150,#148,.T.) ;
#156=EDGE_CURVE('',#119,#150,#155,.F.) ;
#175=EDGE_CURVE('',#143,#174,#172,.T.) ;
#182=EDGE_CURVE('',#174,#181,#179,.T.) ;
#187=EDGE_CURVE('',#150,#181,#186,.T.) ;
#206=EDGE_CURVE('',#174,#205,#203,.F.) ;
#213=EDGE_CURVE('',#205,#212,#210,.T.) ;
#218=EDGE_CURVE('',#181,#212,#217,.F.) ;
#237=EDGE_CURVE('',#205,#236,#234,.T.) ;
#244=EDGE_CURVE('',#236,#243,#241,.T.) ;
#249=EDGE_CURVE('',#212,#243,#248,.T.) ;
#266=EDGE_CURVE('',#236,#41,#265,.F.) ;
#271=EDGE_CURVE('',#243,#43,#270,.F.) ;
#292=EDGE_CURVE('',#289,#291,#287,.T.) ;
#299=EDGE_CURVE('',#298,#291,#296,.T.) ;
#306=EDGE_CURVE('',#305,#298,#303,.T.) ;
#311=EDGE_CURVE('',#305,#289,#310,.T.) ;
#323=EDGE_CURVE('',#291,#289,#322,.T.) ;
#328=EDGE_CURVE('',#298,#305,#327,.T.) ;
#349=EDGE_CURVE('',#346,#348,#344,.T.) ;
#356=EDGE_CURVE('',#355,#348,#353,.T.) ;
#363=EDGE_CURVE('',#362,#355,#360,.T.) ;
#368=EDGE_CURVE('',#362,#346,#367,.T.) ;
#380=EDGE_CURVE('',#348,#346,#379,.T.) ;
#385=EDGE_CURVE('',#355,#362,#384,.T.) ;
#406=EDGE_CURVE('',#403,#405,#401,.T.) ;
#413=EDGE_CURVE('',#412,#405,#410,.T.) ;
#420=EDGE_CURVE('',#419,#412,#417,.T.) ;
#425=EDGE_CURVE('',#419,#403,#424,.T.) ;
#437=EDGE_CURVE('',#405,#403,#436,.T.) ;
#442=EDGE_CURVE('',#412,#419,#441,.T.) ;
#463=EDGE_CURVE('',#460,#462,#458,.T.) ;
#470=EDGE_CURVE('',#469,#462,#467,.T.) ;
#477=EDGE_CURVE('',#476,#469,#474,.T.) ;
#482=EDGE_CURVE('',#476,#460,#481,.T.) ;
#494=EDGE_CURVE('',#462,#460,#493,.T.) ;
#499=EDGE_CURVE('',#469,#476,#498,.T.) ;
#30=CLOSED_SHELL('Closed Shell',(#70,#101,#132,#163,#194,#225,#256,#278,#318,#335,#375,#392,#432,#449,#489,#506,#538,#570)) ;
#572=SHAPE_REPRESENTATION_RELATIONSHIP(' ',' ',#19,#571) ;
#64=EDGE_LOOP('',(#65,#66,#67,#68)) ;
#95=EDGE_LOOP('',(#96,#97,#98,#99)) ;
#126=EDGE_LOOP('',(#127,#128,#129,#130)) ;
#157=EDGE_LOOP('',(#158,#159,#160,#161)) ;
#188=EDGE_LOOP('',(#189,#190,#191,#192)) ;
#219=EDGE_LOOP('',(#220,#221,#222,#223)) ;
#250=EDGE_LOOP('',(#251,#252,#253,#254)) ;
#272=EDGE_LOOP('',(#273,#274,#275,#276)) ;
#312=EDGE_LOOP('',(#313,#314,#315,#316)) ;
#329=EDGE_LOOP('',(#330,#331,#332,#333)) ;
#369=EDGE_LOOP('',(#370,#371,#372,#373)) ;
#386=EDGE_LOOP('',(#387,#388,#389,#390)) ;
#426=EDGE_LOOP('',(#427,#428,#429,#430)) ;
#443=EDGE_LOOP('',(#444,#445,#446,#447)) ;
#483=EDGE_LOOP('',(#484,#485,#486,#487)) ;
#500=EDGE_LOOP('',(#501,#502,#503,#504)) ;
#512=EDGE_LOOP('',(#513,#514,#515,#516,#517,#518,#519,#520)) ;
#522=EDGE_LOOP('',(#523,#524)) ;
#526=EDGE_LOOP('',(#527,#528)) ;
#530=EDGE_LOOP('',(#531,#532)) ;
#534=EDGE_LOOP('',(#535,#536)) ;
#544=EDGE_LOOP('',(#545,#546,#547,#548,#549,#550,#551,#552)) ;
#554=EDGE_LOOP('',(#555,#556)) ;
#558=EDGE_LOOP('',(#559,#560)) ;
#562=EDGE_LOOP('',(#563,#564)) ;
#566=EDGE_LOOP('',(#567,#568)) ;
#65=ORIENTED_EDGE('',*,*,#44,.F.) ;
#66=ORIENTED_EDGE('',*,*,#51,.T.) ;
#67=ORIENTED_EDGE('',*,*,#58,.T.) ;
#68=ORIENTED_EDGE('',*,*,#63,.F.) ;
#96=ORIENTED_EDGE('',*,*,#58,.F.) ;
#97=ORIENTED_EDGE('',*,*,#82,.T.) ;
#98=ORIENTED_EDGE('',*,*,#89,.T.) ;
#99=ORIENTED_EDGE('',*,*,#94,.F.) ;
#127=ORIENTED_EDGE('',*,*,#89,.F.) ;
#128=ORIENTED_EDGE('',*,*,#113,.T.) ;
#129=ORIENTED_EDGE('',*,*,#120,.T.) ;
#130=ORIENTED_EDGE('',*,*,#125,.F.) ;
#158=ORIENTED_EDGE('',*,*,#120,.F.) ;
#159=ORIENTED_EDGE('',*,*,#144,.T.) ;
#160=ORIENTED_EDGE('',*,*,#151,.T.) ;
#161=ORIENTED_EDGE('',*,*,#156,.F.) ;
#189=ORIENTED_EDGE('',*,*,#151,.F.) ;
#190=ORIENTED_EDGE('',*,*,#175,.T.) ;
#191=ORIENTED_EDGE('',*,*,#182,.T.) ;
#192=ORIENTED_EDGE('',*,*,#187,.F.) ;
#220=ORIENTED_EDGE('',*,*,#182,.F.) ;
#221=ORIENTED_EDGE('',*,*,#206,.T.) ;
#222=ORIENTED_EDGE('',*,*,#213,.T.) ;
#223=ORIENTED_EDGE('',*,*,#218,.F.) ;
#251=ORIENTED_EDGE('',*,*,#213,.F.) ;
#252=ORIENTED_EDGE('',*,*,#237,.T.) ;
#253=ORIENTED_EDGE('',*,*,#244,.T.) ;
#254=ORIENTED_EDGE('',*,*,#249,.F.) ;
#273=ORIENTED_EDGE('',*,*,#244,.F.) ;
#274=ORIENTED_EDGE('',*,*,#266,.T.) ;
#275=ORIENTED_EDGE('',*,*,#44,.T.) ;
#276=ORIENTED_EDGE('',*,*,#271,.F.) ;
#313=ORIENTED_EDGE('',*,*,#292,.T.) ;
#314=ORIENTED_EDGE('',*,*,#299,.F.) ;
#315=ORIENTED_EDGE('',*,*,#306,.F.) ;
#316=ORIENTED_EDGE('',*,*,#311,.T.) ;
#330=ORIENTED_EDGE('',*,*,#323,.T.) ;
#331=ORIENTED_EDGE('',*,*,#311,.F.) ;
#332=ORIENTED_EDGE('',*,*,#328,.F.) ;
#333=ORIENTED_EDGE('',*,*,#299,.T.) ;
#370=ORIENTED_EDGE('',*,*,#349,.T.) ;
#371=ORIENTED_EDGE('',*,*,#356,.F.) ;
#372=ORIENTED_EDGE('',*,*,#363,.F.) ;
#373=ORIENTED_EDGE('',*,*,#368,.T.) ;
#387=ORIENTED_EDGE('',*,*,#380,.T.) ;
#388=ORIENTED_EDGE('',*,*,#368,.F.) ;
#389=ORIENTED_EDGE('',*,*,#385,.F.) ;
#390=ORIENTED_EDGE('',*,*,#356,.T.) ;
#427=ORIENTED_EDGE('',*,*,#406,.T.) ;
#428=ORIENTED_EDGE('',*,*,#413,.F.) ;
#429=ORIENTED_EDGE('',*,*,#420,.F.) ;
#430=ORIENTED_EDGE('',*,*,#425,.T.) ;
#444=ORIENTED_EDGE('',*,*,#437,.T.) ;
#445=ORIENTED_EDGE('',*,*,#425,.F.) ;
#446=ORIENTED_EDGE('',*,*,#442,.F.) ;
#447=ORIENTED_EDGE('',*,*,#413,.T.) ;
#484=ORIENTED_EDGE('',*,*,#463,.T.) ;
#485=ORIENTED_EDGE('',*,*,#470,.F.) ;
#486=ORIENTED_EDGE('',*,*,#477,.F.) ;
#487=ORIENTED_EDGE('',*,*,#482,.T.) ;
#501=ORIENTED_EDGE('',*,*,#494,.T.) ;
#502=ORIENTED_EDGE('',*,*,#482,.F.) ;
#503=ORIENTED_EDGE('',*,*,#499,.F.) ;
#504=ORIENTED_EDGE('',*,*,#470,.T.) ;
#513=ORIENTED_EDGE('',*,*,#266,.F.) ;
#514=ORIENTED_EDGE('',*,*,#237,.F.) ;
#515=ORIENTED_EDGE('',*,*,#206,.F.) ;
#516=ORIENTED_EDGE('',*,*,#175,.F.) ;
#517=ORIENTED_EDGE('',*,*,#144,.F.) ;
#518=ORIENTED_EDGE('',*,*,#113,.F.) ;
#519=ORIENTED_EDGE('',*,*,#82,.F.) ;
#520=ORIENTED_EDGE('',*,*,#51,.F.) ;
#523=ORIENTED_EDGE('',*,*,#328,.T.) ;
#524=ORIENTED_EDGE('',*,*,#306,.T.) ;
#527=ORIENTED_EDGE('',*,*,#385,.T.) ;
#528=ORIENTED_EDGE('',*,*,#363,.T.) ;
#531=ORIENTED_EDGE('',*,*,#442,.T.) ;
#532=ORIENTED_EDGE('',*,*,#420,.T.) ;
#535=ORIENTED_EDGE('',*,*,#499,.T.) ;
#536=ORIENTED_EDGE('',*,*,#477,.T.) ;
#545=ORIENTED_EDGE('',*,*,#63,.T.) ;
#546=ORIENTED_EDGE('',*,*,#94,.T.) ;
#547=ORIENTED_EDGE('',*,*,#125,.T.) ;
#548=ORIENTED_EDGE('',*,*,#156,.T.) ;
#549=ORIENTED_EDGE('',*,*,#187,.T.) ;
#550=ORIENTED_EDGE('',*,*,#218,.T.) ;
#551=ORIENTED_EDGE('',*,*,#249,.T.) ;
#552=ORIENTED_EDGE('',*,*,#271,.T.) ;
#555=ORIENTED_EDGE('',*,*,#292,.F.) ;
#556=ORIENTED_EDGE('',*,*,#323,.F.) ;
#559=ORIENTED_EDGE('',*,*,#349,.F.) ;
#560=ORIENTED_EDGE('',*,*,#380,.F.) ;
#563=ORIENTED_EDGE('',*,*,#406,.F.) ;
#564=ORIENTED_EDGE('',*,*,#437,.F.) ;
#567=ORIENTED_EDGE('',*,*,#463,.F.) ;
#568=ORIENTED_EDGE('',*,*,#494,.F.) ;
#21=MANIFOLD_SOLID_BREP('Corps principal',#30) ;
#41=VERTEX_POINT('',#40) ;
#43=VERTEX_POINT('',#42) ;
#50=VERTEX_POINT('',#49) ;
#57=VERTEX_POINT('',#56) ;
#81=VERTEX_POINT('',#80) ;
#88=VERTEX_POINT('',#87) ;
#112=VERTEX_POINT('',#111) ;
#119=VERTEX_POINT('',#118) ;
#143=VERTEX_POINT('',#142) ;
#150=VERTEX_POINT('',#149) ;
#174=VERTEX_POINT('',#173) ;
#181=VERTEX_POINT('',#180) ;
#205=VERTEX_POINT('',#204) ;
#212=VERTEX_POINT('',#211) ;
#236=VERTEX_POINT('',#235) ;
#243=VERTEX_POINT('',#242) ;
#289=VERTEX_POINT('',#288) ;
#291=VERTEX_POINT('',#290) ;
#298=VERTEX_POINT('',#297) ;
#305=VERTEX_POINT('',#304) ;
#346=VERTEX_POINT('',#345) ;
#348=VERTEX_POINT('',#347) ;
#355=VERTEX_POINT('',#354) ;
#362=VERTEX_POINT('',#361) ;
#403=VERTEX_POINT('',#402) ;
#405=VERTEX_POINT('',#404) ;
#412=VERTEX_POINT('',#411) ;
#419=VERTEX_POINT('',#418) ;
#460=VERTEX_POINT('',#459) ;
#462=VERTEX_POINT('',#461) ;
#469=VERTEX_POINT('',#468) ;
#476=VERTEX_POINT('',#475) ;
#571=ADVANCED_BREP_SHAPE_REPRESENTATION('NONE',(#21),#16) ;
#70=ADVANCED_FACE('Corps principal',(#69),#35,.T.) ;
#101=ADVANCED_FACE('Corps principal',(#100),#75,.F.) ;
#132=ADVANCED_FACE('Corps principal',(#131),#106,.T.) ;
#163=ADVANCED_FACE('Corps principal',(#162),#137,.F.) ;
#194=ADVANCED_FACE('Corps principal',(#193),#168,.T.) ;
#225=ADVANCED_FACE('Corps principal',(#224),#199,.F.) ;
#256=ADVANCED_FACE('Corps principal',(#255),#230,.T.) ;
#278=ADVANCED_FACE('Corps principal',(#277),#261,.F.) ;
#318=ADVANCED_FACE('Corps principal',(#317),#283,.F.) ;
#335=ADVANCED_FACE('Corps principal',(#334),#283,.F.) ;
#375=ADVANCED_FACE('Corps principal',(#374),#340,.F.) ;
#392=ADVANCED_FACE('Corps principal',(#391),#340,.F.) ;
#432=ADVANCED_FACE('Corps principal',(#431),#397,.F.) ;
#449=ADVANCED_FACE('Corps principal',(#448),#397,.F.) ;
#489=ADVANCED_FACE('Corps principal',(#488),#454,.F.) ;
#506=ADVANCED_FACE('Corps principal',(#505),#454,.F.) ;
#538=ADVANCED_FACE('Corps principal',(#521,#525,#529,#533,#537),#511,.F.) ;
#570=ADVANCED_FACE('Corps principal',(#553,#557,#561,#565,#569),#543,.T.) ;
#4=APPLICATION_PROTOCOL_DEFINITION('international standard','ap242_managed_model_based_3d_engineering',2014,#1) ;
#22=COLOUR_RGB('Colour',0.,0.501960784314,1.) ;
#69=FACE_OUTER_BOUND('',#64,.T.) ;
#100=FACE_OUTER_BOUND('',#95,.T.) ;
#131=FACE_OUTER_BOUND('',#126,.T.) ;
#162=FACE_OUTER_BOUND('',#157,.T.) ;
#193=FACE_OUTER_BOUND('',#188,.T.) ;
#224=FACE_OUTER_BOUND('',#219,.T.) ;
#255=FACE_OUTER_BOUND('',#250,.T.) ;
#277=FACE_OUTER_BOUND('',#272,.T.) ;
#317=FACE_OUTER_BOUND('',#312,.T.) ;
#334=FACE_OUTER_BOUND('',#329,.T.) ;
#374=FACE_OUTER_BOUND('',#369,.T.) ;
#391=FACE_OUTER_BOUND('',#386,.T.) ;
#431=FACE_OUTER_BOUND('',#426,.T.) ;
#448=FACE_OUTER_BOUND('',#443,.T.) ;
#488=FACE_OUTER_BOUND('',#483,.T.) ;
#505=FACE_OUTER_BOUND('',#500,.T.) ;
#521=FACE_OUTER_BOUND('',#512,.T.) ;
#553=FACE_OUTER_BOUND('',#544,.T.) ;
#9=PRODUCT_CATEGORY_RELATIONSHIP(' ',' ',#7,#8) ;
#6=PRODUCT_DEFINITION_FORMATION_WITH_SPECIFIED_SOURCE('',' ',#5,.NOT_KNOWN.) ;
#20=SHAPE_DEFINITION_REPRESENTATION(#11,#19) ;
#12=(LENGTH_UNIT()NAMED_UNIT(*)SI_UNIT(.MILLI.,.METRE.)) ;
#13=(NAMED_UNIT(*)PLANE_ANGLE_UNIT()SI_UNIT($,.RADIAN.)) ;
#14=(NAMED_UNIT(*)SI_UNIT($,.STERADIAN.)SOLID_ANGLE_UNIT()) ;
#16=(GEOMETRIC_REPRESENTATION_CONTEXT(3)GLOBAL_UNCERTAINTY_ASSIGNED_CONTEXT((#15))GLOBAL_UNIT_ASSIGNED_CONTEXT((#12,#13,#14))REPRESENTATION_CONTEXT(' ',' ')) ;
ENDSEC;
END-ISO-10303-21;
