ISO-10303-21;
HEADER;
/* Generated by software containing ST-Developer
 * from STEP Tools, Inc. (www.steptools.com) 
 */

FILE_DESCRIPTION(
/* description */ (''),
/* implementation_level */ '2;1');

FILE_NAME(
/* name */ 
'C:/Users/Clos des Auges/Desktop/ALPHA/Moyeu de chauss\X\E9e.step',
/* time_stamp */ '2021-04-01T12:59:25+02:00',
/* author */ (''),
/* organization */ (''),
/* preprocessor_version */ 'ST-DEVELOPER v18.1',
/* originating_system */ 'Autodesk Translation Framework v9.10.0.1330',

/* authorisation */ '');

FILE_SCHEMA (('AUTOMOTIVE_DESIGN { 1 0 10303 214 3 1 1 }'));
ENDSEC;

DATA;
#10=MECHANICAL_DESIGN_GEOMETRIC_PRESENTATION_REPRESENTATION('',(#13),#310);
#11=SHAPE_REPRESENTATION_RELATIONSHIP('SRR','None',#317,#12);
#12=ADVANCED_BREP_SHAPE_REPRESENTATION('',(#14),#309);
#13=STYLED_ITEM('',(#326),#14);
#14=MANIFOLD_SOLID_BREP('Corps1',#168);
#15=FACE_BOUND('',#45,.T.);
#16=FACE_BOUND('',#49,.T.);
#17=FACE_BOUND('',#53,.T.);
#18=FACE_BOUND('',#55,.T.);
#19=FACE_BOUND('',#58,.T.);
#20=PLANE('',#187);
#21=PLANE('',#194);
#22=PLANE('',#200);
#23=PLANE('',#201);
#24=PLANE('',#205);
#25=CYLINDRICAL_SURFACE('',#185,5.25);
#26=CYLINDRICAL_SURFACE('',#192,4.);
#27=CYLINDRICAL_SURFACE('',#196,2.505);
#28=CYLINDRICAL_SURFACE('',#198,4.5);
#29=CYLINDRICAL_SURFACE('',#203,5.975);
#30=FACE_OUTER_BOUND('',#42,.T.);
#31=FACE_OUTER_BOUND('',#43,.T.);
#32=FACE_OUTER_BOUND('',#44,.T.);
#33=FACE_OUTER_BOUND('',#46,.T.);
#34=FACE_OUTER_BOUND('',#47,.T.);
#35=FACE_OUTER_BOUND('',#48,.T.);
#36=FACE_OUTER_BOUND('',#50,.T.);
#37=FACE_OUTER_BOUND('',#51,.T.);
#38=FACE_OUTER_BOUND('',#52,.T.);
#39=FACE_OUTER_BOUND('',#54,.T.);
#40=FACE_OUTER_BOUND('',#56,.T.);
#41=FACE_OUTER_BOUND('',#57,.T.);
#42=EDGE_LOOP('',(#116,#117,#118,#119));
#43=EDGE_LOOP('',(#120,#121,#122,#123));
#44=EDGE_LOOP('',(#124));
#45=EDGE_LOOP('',(#125));
#46=EDGE_LOOP('',(#126,#127,#128,#129));
#47=EDGE_LOOP('',(#130,#131,#132,#133));
#48=EDGE_LOOP('',(#134));
#49=EDGE_LOOP('',(#135));
#50=EDGE_LOOP('',(#136,#137,#138,#139));
#51=EDGE_LOOP('',(#140,#141,#142,#143));
#52=EDGE_LOOP('',(#144));
#53=EDGE_LOOP('',(#145));
#54=EDGE_LOOP('',(#146));
#55=EDGE_LOOP('',(#147));
#56=EDGE_LOOP('',(#148,#149,#150,#151));
#57=EDGE_LOOP('',(#152));
#58=EDGE_LOOP('',(#153));
#59=LINE('',#268,#66);
#60=LINE('',#272,#67);
#61=LINE('',#281,#68);
#62=LINE('',#286,#69);
#63=LINE('',#292,#70);
#64=LINE('',#296,#71);
#65=LINE('',#305,#72);
#66=VECTOR('',#212,5.1);
#67=VECTOR('',#217,5.25);
#68=VECTOR('',#228,3.85);
#69=VECTOR('',#235,4.);
#70=VECTOR('',#242,2.505);
#71=VECTOR('',#247,4.5);
#72=VECTOR('',#260,5.975);
#73=CIRCLE('',#183,4.95);
#74=CIRCLE('',#184,5.25);
#75=CIRCLE('',#186,5.25);
#76=CIRCLE('',#188,4.5);
#77=CIRCLE('',#190,4.);
#78=CIRCLE('',#191,3.7);
#79=CIRCLE('',#193,4.);
#80=CIRCLE('',#195,2.505);
#81=CIRCLE('',#197,2.505);
#82=CIRCLE('',#199,4.5);
#83=CIRCLE('',#202,5.975);
#84=CIRCLE('',#204,5.975);
#85=VERTEX_POINT('',#265);
#86=VERTEX_POINT('',#267);
#87=VERTEX_POINT('',#271);
#88=VERTEX_POINT('',#275);
#89=VERTEX_POINT('',#278);
#90=VERTEX_POINT('',#280);
#91=VERTEX_POINT('',#284);
#92=VERTEX_POINT('',#288);
#93=VERTEX_POINT('',#291);
#94=VERTEX_POINT('',#295);
#95=VERTEX_POINT('',#300);
#96=VERTEX_POINT('',#303);
#97=EDGE_CURVE('',#85,#85,#73,.T.);
#98=EDGE_CURVE('',#85,#86,#59,.T.);
#99=EDGE_CURVE('',#86,#86,#74,.T.);
#100=EDGE_CURVE('',#86,#87,#60,.T.);
#101=EDGE_CURVE('',#87,#87,#75,.T.);
#102=EDGE_CURVE('',#88,#88,#76,.T.);
#103=EDGE_CURVE('',#89,#89,#77,.T.);
#104=EDGE_CURVE('',#89,#90,#61,.T.);
#105=EDGE_CURVE('',#90,#90,#78,.T.);
#106=EDGE_CURVE('',#91,#91,#79,.T.);
#107=EDGE_CURVE('',#91,#89,#62,.T.);
#108=EDGE_CURVE('',#92,#92,#80,.T.);
#109=EDGE_CURVE('',#92,#93,#63,.T.);
#110=EDGE_CURVE('',#93,#93,#81,.T.);
#111=EDGE_CURVE('',#88,#94,#64,.T.);
#112=EDGE_CURVE('',#94,#94,#82,.T.);
#113=EDGE_CURVE('',#95,#95,#83,.T.);
#114=EDGE_CURVE('',#96,#96,#84,.T.);
#115=EDGE_CURVE('',#96,#95,#65,.T.);
#116=ORIENTED_EDGE('',*,*,#97,.T.);
#117=ORIENTED_EDGE('',*,*,#98,.T.);
#118=ORIENTED_EDGE('',*,*,#99,.T.);
#119=ORIENTED_EDGE('',*,*,#98,.F.);
#120=ORIENTED_EDGE('',*,*,#99,.F.);
#121=ORIENTED_EDGE('',*,*,#100,.T.);
#122=ORIENTED_EDGE('',*,*,#101,.F.);
#123=ORIENTED_EDGE('',*,*,#100,.F.);
#124=ORIENTED_EDGE('',*,*,#97,.F.);
#125=ORIENTED_EDGE('',*,*,#102,.T.);
#126=ORIENTED_EDGE('',*,*,#103,.T.);
#127=ORIENTED_EDGE('',*,*,#104,.T.);
#128=ORIENTED_EDGE('',*,*,#105,.T.);
#129=ORIENTED_EDGE('',*,*,#104,.F.);
#130=ORIENTED_EDGE('',*,*,#106,.F.);
#131=ORIENTED_EDGE('',*,*,#107,.T.);
#132=ORIENTED_EDGE('',*,*,#103,.F.);
#133=ORIENTED_EDGE('',*,*,#107,.F.);
#134=ORIENTED_EDGE('',*,*,#105,.F.);
#135=ORIENTED_EDGE('',*,*,#108,.T.);
#136=ORIENTED_EDGE('',*,*,#108,.F.);
#137=ORIENTED_EDGE('',*,*,#109,.T.);
#138=ORIENTED_EDGE('',*,*,#110,.F.);
#139=ORIENTED_EDGE('',*,*,#109,.F.);
#140=ORIENTED_EDGE('',*,*,#102,.F.);
#141=ORIENTED_EDGE('',*,*,#111,.T.);
#142=ORIENTED_EDGE('',*,*,#112,.T.);
#143=ORIENTED_EDGE('',*,*,#111,.F.);
#144=ORIENTED_EDGE('',*,*,#112,.F.);
#145=ORIENTED_EDGE('',*,*,#110,.T.);
#146=ORIENTED_EDGE('',*,*,#113,.F.);
#147=ORIENTED_EDGE('',*,*,#106,.T.);
#148=ORIENTED_EDGE('',*,*,#114,.F.);
#149=ORIENTED_EDGE('',*,*,#115,.T.);
#150=ORIENTED_EDGE('',*,*,#113,.T.);
#151=ORIENTED_EDGE('',*,*,#115,.F.);
#152=ORIENTED_EDGE('',*,*,#114,.T.);
#153=ORIENTED_EDGE('',*,*,#101,.T.);
#154=CONICAL_SURFACE('',#182,5.1,0.785398163397448);
#155=CONICAL_SURFACE('',#189,3.85,0.785398163397449);
#156=ADVANCED_FACE('',(#30),#154,.T.);
#157=ADVANCED_FACE('',(#31),#25,.T.);
#158=ADVANCED_FACE('',(#32,#15),#20,.T.);
#159=ADVANCED_FACE('',(#33),#155,.T.);
#160=ADVANCED_FACE('',(#34),#26,.T.);
#161=ADVANCED_FACE('',(#35,#16),#21,.F.);
#162=ADVANCED_FACE('',(#36),#27,.F.);
#163=ADVANCED_FACE('',(#37),#28,.F.);
#164=ADVANCED_FACE('',(#38,#17),#22,.T.);
#165=ADVANCED_FACE('',(#39,#18),#23,.F.);
#166=ADVANCED_FACE('',(#40),#29,.T.);
#167=ADVANCED_FACE('',(#41,#19),#24,.T.);
#168=CLOSED_SHELL('',(#156,#157,#158,#159,#160,#161,#162,#163,#164,#165,
#166,#167));
#169=DERIVED_UNIT_ELEMENT(#171,1.);
#170=DERIVED_UNIT_ELEMENT(#312,-3.);
#171=(
MASS_UNIT()
NAMED_UNIT(*)
SI_UNIT(.KILO.,.GRAM.)
);
#172=DERIVED_UNIT((#169,#170));
#173=MEASURE_REPRESENTATION_ITEM('density measure',
POSITIVE_RATIO_MEASURE(2700.),#172);
#174=PROPERTY_DEFINITION_REPRESENTATION(#179,#176);
#175=PROPERTY_DEFINITION_REPRESENTATION(#180,#177);
#176=REPRESENTATION('material name',(#178),#309);
#177=REPRESENTATION('density',(#173),#309);
#178=DESCRIPTIVE_REPRESENTATION_ITEM('Aluminium','Aluminium');
#179=PROPERTY_DEFINITION('material property','material name',#319);
#180=PROPERTY_DEFINITION('material property','density of part',#319);
#181=AXIS2_PLACEMENT_3D('placement',#263,#206,#207);
#182=AXIS2_PLACEMENT_3D('',#264,#208,#209);
#183=AXIS2_PLACEMENT_3D('',#266,#210,#211);
#184=AXIS2_PLACEMENT_3D('',#269,#213,#214);
#185=AXIS2_PLACEMENT_3D('',#270,#215,#216);
#186=AXIS2_PLACEMENT_3D('',#273,#218,#219);
#187=AXIS2_PLACEMENT_3D('',#274,#220,#221);
#188=AXIS2_PLACEMENT_3D('',#276,#222,#223);
#189=AXIS2_PLACEMENT_3D('',#277,#224,#225);
#190=AXIS2_PLACEMENT_3D('',#279,#226,#227);
#191=AXIS2_PLACEMENT_3D('',#282,#229,#230);
#192=AXIS2_PLACEMENT_3D('',#283,#231,#232);
#193=AXIS2_PLACEMENT_3D('',#285,#233,#234);
#194=AXIS2_PLACEMENT_3D('',#287,#236,#237);
#195=AXIS2_PLACEMENT_3D('',#289,#238,#239);
#196=AXIS2_PLACEMENT_3D('',#290,#240,#241);
#197=AXIS2_PLACEMENT_3D('',#293,#243,#244);
#198=AXIS2_PLACEMENT_3D('',#294,#245,#246);
#199=AXIS2_PLACEMENT_3D('',#297,#248,#249);
#200=AXIS2_PLACEMENT_3D('',#298,#250,#251);
#201=AXIS2_PLACEMENT_3D('',#299,#252,#253);
#202=AXIS2_PLACEMENT_3D('',#301,#254,#255);
#203=AXIS2_PLACEMENT_3D('',#302,#256,#257);
#204=AXIS2_PLACEMENT_3D('',#304,#258,#259);
#205=AXIS2_PLACEMENT_3D('',#306,#261,#262);
#206=DIRECTION('axis',(0.,0.,1.));
#207=DIRECTION('refdir',(1.,0.,0.));
#208=DIRECTION('center_axis',(0.,0.,-1.));
#209=DIRECTION('ref_axis',(1.,0.,0.));
#210=DIRECTION('center_axis',(0.,0.,-1.));
#211=DIRECTION('ref_axis',(1.,0.,0.));
#212=DIRECTION('',(-0.707106781186548,-8.65956056235493E-17,-0.707106781186548));
#213=DIRECTION('center_axis',(0.,0.,1.));
#214=DIRECTION('ref_axis',(1.,0.,0.));
#215=DIRECTION('center_axis',(0.,0.,1.));
#216=DIRECTION('ref_axis',(1.,0.,0.));
#217=DIRECTION('',(0.,0.,-1.));
#218=DIRECTION('center_axis',(0.,0.,-1.));
#219=DIRECTION('ref_axis',(1.,0.,0.));
#220=DIRECTION('center_axis',(0.,0.,1.));
#221=DIRECTION('ref_axis',(1.,0.,0.));
#222=DIRECTION('center_axis',(0.,0.,-1.));
#223=DIRECTION('ref_axis',(1.,0.,0.));
#224=DIRECTION('center_axis',(0.,0.,1.));
#225=DIRECTION('ref_axis',(1.,0.,0.));
#226=DIRECTION('center_axis',(0.,0.,-1.));
#227=DIRECTION('ref_axis',(1.,0.,0.));
#228=DIRECTION('',(0.707106781186548,8.65956056235494E-17,-0.707106781186547));
#229=DIRECTION('center_axis',(0.,0.,1.));
#230=DIRECTION('ref_axis',(1.,0.,0.));
#231=DIRECTION('center_axis',(0.,0.,1.));
#232=DIRECTION('ref_axis',(1.,0.,0.));
#233=DIRECTION('center_axis',(0.,0.,1.));
#234=DIRECTION('ref_axis',(1.,0.,0.));
#235=DIRECTION('',(0.,0.,-1.));
#236=DIRECTION('center_axis',(0.,0.,1.));
#237=DIRECTION('ref_axis',(1.,0.,0.));
#238=DIRECTION('center_axis',(0.,0.,1.));
#239=DIRECTION('ref_axis',(-1.,0.,0.));
#240=DIRECTION('center_axis',(0.,0.,1.));
#241=DIRECTION('ref_axis',(-1.,0.,0.));
#242=DIRECTION('',(0.,0.,1.));
#243=DIRECTION('center_axis',(0.,0.,-1.));
#244=DIRECTION('ref_axis',(-1.,0.,0.));
#245=DIRECTION('center_axis',(0.,0.,-1.));
#246=DIRECTION('ref_axis',(1.,0.,0.));
#247=DIRECTION('',(0.,0.,-1.));
#248=DIRECTION('center_axis',(0.,0.,-1.));
#249=DIRECTION('ref_axis',(1.,0.,0.));
#250=DIRECTION('center_axis',(0.,0.,1.));
#251=DIRECTION('ref_axis',(1.,0.,0.));
#252=DIRECTION('center_axis',(0.,0.,1.));
#253=DIRECTION('ref_axis',(1.,0.,0.));
#254=DIRECTION('center_axis',(0.,0.,1.));
#255=DIRECTION('ref_axis',(1.,0.,0.));
#256=DIRECTION('center_axis',(0.,0.,1.));
#257=DIRECTION('ref_axis',(1.,0.,0.));
#258=DIRECTION('center_axis',(0.,0.,1.));
#259=DIRECTION('ref_axis',(1.,0.,0.));
#260=DIRECTION('',(0.,0.,-1.));
#261=DIRECTION('center_axis',(0.,0.,1.));
#262=DIRECTION('ref_axis',(1.,0.,0.));
#263=CARTESIAN_POINT('',(0.,0.,0.));
#264=CARTESIAN_POINT('Origin',(0.,0.,15.75));
#265=CARTESIAN_POINT('',(-4.95,6.0620016557794E-16,15.9));
#266=CARTESIAN_POINT('Origin',(0.,0.,15.9));
#267=CARTESIAN_POINT('',(-5.25,-6.42939569552361E-16,15.6));
#268=CARTESIAN_POINT('',(-5.1,-6.2456986756515E-16,15.75));
#269=CARTESIAN_POINT('Origin',(0.,0.,15.6));
#270=CARTESIAN_POINT('Origin',(0.,0.,13.9));
#271=CARTESIAN_POINT('',(-5.25,-6.42939569552361E-16,13.9));
#272=CARTESIAN_POINT('',(-5.25,-6.42939569552361E-16,13.9));
#273=CARTESIAN_POINT('Origin',(0.,0.,13.9));
#274=CARTESIAN_POINT('Origin',(0.,0.,15.9));
#275=CARTESIAN_POINT('',(-4.5,-5.51091059616309E-16,15.9));
#276=CARTESIAN_POINT('Origin',(0.,0.,15.9));
#277=CARTESIAN_POINT('Origin',(0.,0.,0.15));
#278=CARTESIAN_POINT('',(-4.,4.89858719658941E-16,0.3));
#279=CARTESIAN_POINT('Origin',(0.,0.,0.3));
#280=CARTESIAN_POINT('',(-3.7,-4.53119315684521E-16,0.));
#281=CARTESIAN_POINT('',(-3.85,-4.71489017671731E-16,0.15));
#282=CARTESIAN_POINT('Origin',(0.,0.,0.));
#283=CARTESIAN_POINT('Origin',(0.,0.,0.));
#284=CARTESIAN_POINT('',(-4.,-4.89858719658941E-16,4.9));
#285=CARTESIAN_POINT('Origin',(0.,0.,4.9));
#286=CARTESIAN_POINT('',(-4.,-4.89858719658941E-16,0.));
#287=CARTESIAN_POINT('Origin',(0.,0.,0.));
#288=CARTESIAN_POINT('',(2.505,-3.06774023186412E-16,0.));
#289=CARTESIAN_POINT('Origin',(0.,0.,0.));
#290=CARTESIAN_POINT('Origin',(0.,0.,0.));
#291=CARTESIAN_POINT('',(2.505,-3.06774023186412E-16,7.9));
#292=CARTESIAN_POINT('',(2.505,3.06774023186412E-16,0.));
#293=CARTESIAN_POINT('Origin',(0.,0.,7.9));
#294=CARTESIAN_POINT('Origin',(0.,0.,15.9));
#295=CARTESIAN_POINT('',(-4.5,-5.51091059616309E-16,7.9));
#296=CARTESIAN_POINT('',(-4.5,5.51091059616309E-16,15.9));
#297=CARTESIAN_POINT('Origin',(0.,0.,7.9));
#298=CARTESIAN_POINT('Origin',(0.,0.,7.9));
#299=CARTESIAN_POINT('Origin',(0.,0.,4.9));
#300=CARTESIAN_POINT('',(-5.975,-7.31726462490544E-16,4.9));
#301=CARTESIAN_POINT('Origin',(0.,0.,4.9));
#302=CARTESIAN_POINT('Origin',(0.,0.,4.9));
#303=CARTESIAN_POINT('',(-5.975,-7.31726462490544E-16,13.9));
#304=CARTESIAN_POINT('Origin',(0.,0.,13.9));
#305=CARTESIAN_POINT('',(-5.975,-7.31726462490544E-16,4.9));
#306=CARTESIAN_POINT('Origin',(0.,0.,13.9));
#307=UNCERTAINTY_MEASURE_WITH_UNIT(LENGTH_MEASURE(0.01),#311,
'DISTANCE_ACCURACY_VALUE',
'Maximum model space distance between geometric entities at asserted c
onnectivities');
#308=UNCERTAINTY_MEASURE_WITH_UNIT(LENGTH_MEASURE(0.01),#311,
'DISTANCE_ACCURACY_VALUE',
'Maximum model space distance between geometric entities at asserted c
onnectivities');
#309=(
GEOMETRIC_REPRESENTATION_CONTEXT(3)
GLOBAL_UNCERTAINTY_ASSIGNED_CONTEXT((#307))
GLOBAL_UNIT_ASSIGNED_CONTEXT((#311,#313,#314))
REPRESENTATION_CONTEXT('','3D')
);
#310=(
GEOMETRIC_REPRESENTATION_CONTEXT(3)
GLOBAL_UNCERTAINTY_ASSIGNED_CONTEXT((#308))
GLOBAL_UNIT_ASSIGNED_CONTEXT((#311,#313,#314))
REPRESENTATION_CONTEXT('','3D')
);
#311=(
LENGTH_UNIT()
NAMED_UNIT(*)
SI_UNIT(.MILLI.,.METRE.)
);
#312=(
LENGTH_UNIT()
NAMED_UNIT(*)
SI_UNIT($,.METRE.)
);
#313=(
NAMED_UNIT(*)
PLANE_ANGLE_UNIT()
SI_UNIT($,.RADIAN.)
);
#314=(
NAMED_UNIT(*)
SI_UNIT($,.STERADIAN.)
SOLID_ANGLE_UNIT()
);
#315=SHAPE_DEFINITION_REPRESENTATION(#316,#317);
#316=PRODUCT_DEFINITION_SHAPE('',$,#319);
#317=SHAPE_REPRESENTATION('',(#181),#309);
#318=PRODUCT_DEFINITION_CONTEXT('part definition',#323,'design');
#319=PRODUCT_DEFINITION('Moyeu de chauss\X\E9e','Moyeu de chauss\X\E9e
 v6',#320,#318);
#320=PRODUCT_DEFINITION_FORMATION('',$,#325);
#321=PRODUCT_RELATED_PRODUCT_CATEGORY('Moyeu de chauss\X\E9e v6',
'Moyeu de chauss\X\E9e v6',(#325));
#322=APPLICATION_PROTOCOL_DEFINITION('international standard',
'automotive_design',2009,#323);
#323=APPLICATION_CONTEXT(
'Core Data for Automotive Mechanical Design Process');
#324=PRODUCT_CONTEXT('part definition',#323,'mechanical');
#325=PRODUCT('Moyeu de chauss\X\E9e','Moyeu de chauss\X\E9e v6',$,(#324));
#326=PRESENTATION_STYLE_ASSIGNMENT((#327));
#327=SURFACE_STYLE_USAGE(.BOTH.,#328);
#328=SURFACE_SIDE_STYLE('',(#329));
#329=SURFACE_STYLE_FILL_AREA(#330);
#330=FILL_AREA_STYLE('Aluminium - Satin\X\E9',(#331));
#331=FILL_AREA_STYLE_COLOUR('Aluminium - Satin\X\E9',#332);
#332=COLOUR_RGB('Aluminium - Satin\X\E9',0.96078431372549,0.96078431372549,
0.964705882352941);
ENDSEC;
END-ISO-10303-21;
