ISO-10303-21;
HEADER;
/* Generated by software containing ST-Developer
 * from STEP Tools, Inc. (www.steptools.com) 
 */

FILE_DESCRIPTION(
/* description */ (''),
/* implementation_level */ '2;1');

FILE_NAME(
/* name */ 'E:\\stephane_larhant\\step\\axe_porte_outil_clavette4x2.5.
stp',
/* time_stamp */ '2021-03-29T18:33:34+02:00',
/* author */ ('Utilisateur'),
/* organization */ (''),
/* preprocessor_version */ 'ST-DEVELOPER v16.5',
/* originating_system */ 'Autodesk Inventor 2017',
/* authorisation */ '');

FILE_SCHEMA (('AUTOMOTIVE_DESIGN { 1 0 10303 214 3 1 1 }'));
ENDSEC;

DATA;
#10=MECHANICAL_DESIGN_GEOMETRIC_PRESENTATION_REPRESENTATION('',(#13),#181);
#11=SHAPE_REPRESENTATION_RELATIONSHIP('SRR','None',#190,#12);
#12=ADVANCED_BREP_SHAPE_REPRESENTATION('',(#14),#180);
#13=STYLED_ITEM('',(#199),#14);
#14=MANIFOLD_SOLID_BREP('Solide1',#103);
#15=PLANE('',#114);
#16=PLANE('',#118);
#17=PLANE('',#119);
#18=PLANE('',#120);
#19=FACE_OUTER_BOUND('',#25,.T.);
#20=FACE_OUTER_BOUND('',#26,.T.);
#21=FACE_OUTER_BOUND('',#27,.T.);
#22=FACE_OUTER_BOUND('',#28,.T.);
#23=FACE_OUTER_BOUND('',#29,.T.);
#24=FACE_OUTER_BOUND('',#30,.T.);
#25=EDGE_LOOP('',(#71,#72,#73,#74));
#26=EDGE_LOOP('',(#75,#76,#77,#78));
#27=EDGE_LOOP('',(#79,#80,#81,#82));
#28=EDGE_LOOP('',(#83,#84,#85,#86));
#29=EDGE_LOOP('',(#87,#88,#89,#90));
#30=EDGE_LOOP('',(#91,#92,#93,#94));
#31=LINE('',#157,#39);
#32=LINE('',#160,#40);
#33=LINE('',#163,#41);
#34=LINE('',#165,#42);
#35=LINE('',#166,#43);
#36=LINE('',#172,#44);
#37=LINE('',#174,#45);
#38=LINE('',#175,#46);
#39=VECTOR('',#127,10.);
#40=VECTOR('',#130,10.);
#41=VECTOR('',#133,10.);
#42=VECTOR('',#134,10.);
#43=VECTOR('',#135,10.);
#44=VECTOR('',#142,10.);
#45=VECTOR('',#145,10.);
#46=VECTOR('',#146,10.);
#47=CIRCLE('',#112,2.);
#48=CIRCLE('',#113,2.);
#49=CIRCLE('',#116,2.);
#50=CIRCLE('',#117,2.);
#51=VERTEX_POINT('',#153);
#52=VERTEX_POINT('',#154);
#53=VERTEX_POINT('',#156);
#54=VERTEX_POINT('',#158);
#55=VERTEX_POINT('',#162);
#56=VERTEX_POINT('',#164);
#57=VERTEX_POINT('',#168);
#58=VERTEX_POINT('',#170);
#59=EDGE_CURVE('',#51,#52,#47,.T.);
#60=EDGE_CURVE('',#52,#53,#31,.T.);
#61=EDGE_CURVE('',#54,#53,#48,.T.);
#62=EDGE_CURVE('',#51,#54,#32,.T.);
#63=EDGE_CURVE('',#55,#51,#33,.T.);
#64=EDGE_CURVE('',#56,#54,#34,.T.);
#65=EDGE_CURVE('',#55,#56,#35,.T.);
#66=EDGE_CURVE('',#57,#55,#49,.T.);
#67=EDGE_CURVE('',#58,#56,#50,.T.);
#68=EDGE_CURVE('',#57,#58,#36,.T.);
#69=EDGE_CURVE('',#52,#57,#37,.T.);
#70=EDGE_CURVE('',#53,#58,#38,.T.);
#71=ORIENTED_EDGE('',*,*,#59,.T.);
#72=ORIENTED_EDGE('',*,*,#60,.T.);
#73=ORIENTED_EDGE('',*,*,#61,.F.);
#74=ORIENTED_EDGE('',*,*,#62,.F.);
#75=ORIENTED_EDGE('',*,*,#63,.T.);
#76=ORIENTED_EDGE('',*,*,#62,.T.);
#77=ORIENTED_EDGE('',*,*,#64,.F.);
#78=ORIENTED_EDGE('',*,*,#65,.F.);
#79=ORIENTED_EDGE('',*,*,#66,.T.);
#80=ORIENTED_EDGE('',*,*,#65,.T.);
#81=ORIENTED_EDGE('',*,*,#67,.F.);
#82=ORIENTED_EDGE('',*,*,#68,.F.);
#83=ORIENTED_EDGE('',*,*,#69,.T.);
#84=ORIENTED_EDGE('',*,*,#68,.T.);
#85=ORIENTED_EDGE('',*,*,#70,.F.);
#86=ORIENTED_EDGE('',*,*,#60,.F.);
#87=ORIENTED_EDGE('',*,*,#70,.T.);
#88=ORIENTED_EDGE('',*,*,#67,.T.);
#89=ORIENTED_EDGE('',*,*,#64,.T.);
#90=ORIENTED_EDGE('',*,*,#61,.T.);
#91=ORIENTED_EDGE('',*,*,#69,.F.);
#92=ORIENTED_EDGE('',*,*,#59,.F.);
#93=ORIENTED_EDGE('',*,*,#63,.F.);
#94=ORIENTED_EDGE('',*,*,#66,.F.);
#95=CYLINDRICAL_SURFACE('',#111,2.);
#96=CYLINDRICAL_SURFACE('',#115,2.);
#97=ADVANCED_FACE('',(#19),#95,.T.);
#98=ADVANCED_FACE('',(#20),#15,.T.);
#99=ADVANCED_FACE('',(#21),#96,.T.);
#100=ADVANCED_FACE('',(#22),#16,.T.);
#101=ADVANCED_FACE('',(#23),#17,.T.);
#102=ADVANCED_FACE('',(#24),#18,.F.);
#103=CLOSED_SHELL('',(#97,#98,#99,#100,#101,#102));
#104=DATE_TIME_ROLE('creation_date');
#105=APPLIED_DATE_AND_TIME_ASSIGNMENT(#106,#104,(#192));
#106=DATE_AND_TIME(#107,#108);
#107=CALENDAR_DATE(2021,6,3);
#108=LOCAL_TIME(15,15,20.,#109);
#109=COORDINATED_UNIVERSAL_TIME_OFFSET(0,0,.BEHIND.);
#110=AXIS2_PLACEMENT_3D('placement',#151,#121,#122);
#111=AXIS2_PLACEMENT_3D('',#152,#123,#124);
#112=AXIS2_PLACEMENT_3D('',#155,#125,#126);
#113=AXIS2_PLACEMENT_3D('',#159,#128,#129);
#114=AXIS2_PLACEMENT_3D('',#161,#131,#132);
#115=AXIS2_PLACEMENT_3D('',#167,#136,#137);
#116=AXIS2_PLACEMENT_3D('',#169,#138,#139);
#117=AXIS2_PLACEMENT_3D('',#171,#140,#141);
#118=AXIS2_PLACEMENT_3D('',#173,#143,#144);
#119=AXIS2_PLACEMENT_3D('',#176,#147,#148);
#120=AXIS2_PLACEMENT_3D('',#177,#149,#150);
#121=DIRECTION('axis',(0.,0.,1.));
#122=DIRECTION('refdir',(1.,0.,0.));
#123=DIRECTION('center_axis',(0.,0.,1.));
#124=DIRECTION('ref_axis',(-1.,0.,0.));
#125=DIRECTION('center_axis',(0.,0.,1.));
#126=DIRECTION('ref_axis',(-1.,0.,0.));
#127=DIRECTION('',(0.,0.,1.));
#128=DIRECTION('center_axis',(0.,0.,1.));
#129=DIRECTION('ref_axis',(-1.,0.,0.));
#130=DIRECTION('',(0.,0.,1.));
#131=DIRECTION('center_axis',(-1.,1.48029736616688E-16,0.));
#132=DIRECTION('ref_axis',(-1.33226762955019E-16,-1.,0.));
#133=DIRECTION('',(-1.48029736616688E-16,-1.,0.));
#134=DIRECTION('',(-1.48029736616688E-16,-1.,0.));
#135=DIRECTION('',(0.,0.,1.));
#136=DIRECTION('center_axis',(0.,0.,1.));
#137=DIRECTION('ref_axis',(1.,0.,0.));
#138=DIRECTION('center_axis',(0.,0.,1.));
#139=DIRECTION('ref_axis',(1.,0.,0.));
#140=DIRECTION('center_axis',(0.,0.,1.));
#141=DIRECTION('ref_axis',(1.,0.,0.));
#142=DIRECTION('',(0.,0.,1.));
#143=DIRECTION('center_axis',(1.,0.,0.));
#144=DIRECTION('ref_axis',(0.,1.,0.));
#145=DIRECTION('',(0.,1.,0.));
#146=DIRECTION('',(0.,1.,0.));
#147=DIRECTION('center_axis',(0.,0.,1.));
#148=DIRECTION('ref_axis',(1.,0.,0.));
#149=DIRECTION('center_axis',(0.,0.,1.));
#150=DIRECTION('ref_axis',(1.,0.,0.));
#151=CARTESIAN_POINT('',(0.,0.,0.));
#152=CARTESIAN_POINT('Origin',(-1.01279358759777E-15,-7.5,0.));
#153=CARTESIAN_POINT('',(-2.,-7.5,0.));
#154=CARTESIAN_POINT('',(2.,-7.5,0.));
#155=CARTESIAN_POINT('Origin',(-1.01279358759777E-15,-7.5,0.));
#156=CARTESIAN_POINT('',(2.,-7.5,2.5));
#157=CARTESIAN_POINT('',(2.,-7.5,0.));
#158=CARTESIAN_POINT('',(-2.,-7.5,2.5));
#159=CARTESIAN_POINT('Origin',(-1.01279358759777E-15,-7.5,2.5));
#160=CARTESIAN_POINT('',(-2.,-7.5,0.));
#161=CARTESIAN_POINT('Origin',(-2.,7.5,0.));
#162=CARTESIAN_POINT('',(-2.,7.5,0.));
#163=CARTESIAN_POINT('',(-2.,7.5,0.));
#164=CARTESIAN_POINT('',(-2.,7.5,2.5));
#165=CARTESIAN_POINT('',(-2.,7.5,2.5));
#166=CARTESIAN_POINT('',(-2.,7.5,0.));
#167=CARTESIAN_POINT('Origin',(-7.50616703344991E-17,7.5,0.));
#168=CARTESIAN_POINT('',(2.,7.5,0.));
#169=CARTESIAN_POINT('Origin',(-7.50616703344991E-17,7.5,0.));
#170=CARTESIAN_POINT('',(2.,7.5,2.5));
#171=CARTESIAN_POINT('Origin',(-7.50616703344991E-17,7.5,2.5));
#172=CARTESIAN_POINT('',(2.,7.5,0.));
#173=CARTESIAN_POINT('Origin',(2.,-7.5,0.));
#174=CARTESIAN_POINT('',(2.,-7.5,0.));
#175=CARTESIAN_POINT('',(2.,-7.5,2.5));
#176=CARTESIAN_POINT('Origin',(-3.51634949041186E-16,0.,2.5));
#177=CARTESIAN_POINT('Origin',(-3.51634949041186E-16,0.,0.));
#178=UNCERTAINTY_MEASURE_WITH_UNIT(LENGTH_MEASURE(0.01),#182,
'DISTANCE_ACCURACY_VALUE',
'Maximum model space distance between geometric entities at asserted c
onnectivities');
#179=UNCERTAINTY_MEASURE_WITH_UNIT(LENGTH_MEASURE(1.E-6),#182,
'DISTANCE_ACCURACY_VALUE',
'Maximum model space distance between geometric entities at asserted c
onnectivities');
#180=(
GEOMETRIC_REPRESENTATION_CONTEXT(3)
GLOBAL_UNCERTAINTY_ASSIGNED_CONTEXT((#178))
GLOBAL_UNIT_ASSIGNED_CONTEXT((#182,#185,#183))
REPRESENTATION_CONTEXT('','3D')
);
#181=(
GEOMETRIC_REPRESENTATION_CONTEXT(3)
GLOBAL_UNCERTAINTY_ASSIGNED_CONTEXT((#179))
GLOBAL_UNIT_ASSIGNED_CONTEXT((#182,#185,#183))
REPRESENTATION_CONTEXT('','3D')
);
#182=(
LENGTH_UNIT()
NAMED_UNIT(*)
SI_UNIT(.MILLI.,.METRE.)
);
#183=(
NAMED_UNIT(*)
SI_UNIT($,.STERADIAN.)
SOLID_ANGLE_UNIT()
);
#184=DIMENSIONAL_EXPONENTS(0.,0.,0.,0.,0.,0.,0.);
#185=(
CONVERSION_BASED_UNIT('degree',#187)
NAMED_UNIT(#184)
PLANE_ANGLE_UNIT()
);
#186=(
NAMED_UNIT(*)
PLANE_ANGLE_UNIT()
SI_UNIT($,.RADIAN.)
);
#187=PLANE_ANGLE_MEASURE_WITH_UNIT(PLANE_ANGLE_MEASURE(0.01745329252),#186);
#188=SHAPE_DEFINITION_REPRESENTATION(#189,#190);
#189=PRODUCT_DEFINITION_SHAPE('',$,#192);
#190=SHAPE_REPRESENTATION('',(#110),#180);
#191=PRODUCT_DEFINITION_CONTEXT('part definition',#196,'design');
#192=PRODUCT_DEFINITION('axe_porte_outil_clavette4x2.5',
'axe_porte_outil_clavette4x2.5',#193,#191);
#193=PRODUCT_DEFINITION_FORMATION('',$,#198);
#194=PRODUCT_RELATED_PRODUCT_CATEGORY('axe_porte_outil_clavette4x2.5',
'axe_porte_outil_clavette4x2.5',(#198));
#195=APPLICATION_PROTOCOL_DEFINITION('international standard',
'automotive_design',2009,#196);
#196=APPLICATION_CONTEXT(
'Core Data for Automotive Mechanical Design Process');
#197=PRODUCT_CONTEXT('part definition',#196,'mechanical');
#198=PRODUCT('axe_porte_outil_clavette4x2.5',
'axe_porte_outil_clavette4x2.5',$,(#197));
#199=PRESENTATION_STYLE_ASSIGNMENT((#200));
#200=SURFACE_STYLE_USAGE(.BOTH.,#201);
#201=SURFACE_SIDE_STYLE('',(#202));
#202=SURFACE_STYLE_FILL_AREA(#203);
#203=FILL_AREA_STYLE('',(#204));
#204=FILL_AREA_STYLE_COLOUR('',#205);
#205=COLOUR_RGB('',0.745098039215686,0.737254901960784,0.729411764705882);
ENDSEC;
END-ISO-10303-21;
