ISO-10303-21;
HEADER;
/* Generated by software containing ST-Developer
 * from STEP Tools, Inc. (www.steptools.com) 
 */

FILE_DESCRIPTION(
/* description */ (''),
/* implementation_level */ '2;1');

FILE_NAME(
/* name */ 'E:\\stephane_larhant\\step\\axe_porte_outil_cone F.stp',
/* time_stamp */ '2021-03-29T18:32:11+02:00',
/* author */ ('Utilisateur'),
/* organization */ (''),
/* preprocessor_version */ 'ST-DEVELOPER v16.5',
/* originating_system */ 'Autodesk Inventor 2017',
/* authorisation */ '');

FILE_SCHEMA (('AUTOMOTIVE_DESIGN { 1 0 10303 214 3 1 1 }'));
ENDSEC;

DATA;
#10=MECHANICAL_DESIGN_GEOMETRIC_PRESENTATION_REPRESENTATION('',(#13),#570);
#11=SHAPE_REPRESENTATION_RELATIONSHIP('SRR','None',#579,#12);
#12=ADVANCED_BREP_SHAPE_REPRESENTATION('',(#14),#569);
#13=STYLED_ITEM('',(#588),#14);
#14=MANIFOLD_SOLID_BREP('Solide1',#323);
#15=CONICAL_SURFACE('',#354,11.6076951545867,15.);
#16=FACE_BOUND('',#59,.T.);
#17=FACE_BOUND('',#65,.T.);
#18=FACE_BOUND('',#70,.T.);
#19=FACE_BOUND('',#73,.T.);
#20=FACE_BOUND('',#75,.T.);
#21=FACE_BOUND('',#77,.T.);
#22=FACE_BOUND('',#79,.T.);
#23=PLANE('',#333);
#24=PLANE('',#334);
#25=PLANE('',#335);
#26=PLANE('',#339);
#27=PLANE('',#340);
#28=PLANE('',#341);
#29=PLANE('',#342);
#30=PLANE('',#343);
#31=PLANE('',#350);
#32=PLANE('',#356);
#33=PLANE('',#360);
#34=PLANE('',#364);
#35=FACE_OUTER_BOUND('',#54,.T.);
#36=FACE_OUTER_BOUND('',#55,.T.);
#37=FACE_OUTER_BOUND('',#56,.T.);
#38=FACE_OUTER_BOUND('',#57,.T.);
#39=FACE_OUTER_BOUND('',#58,.T.);
#40=FACE_OUTER_BOUND('',#60,.T.);
#41=FACE_OUTER_BOUND('',#61,.T.);
#42=FACE_OUTER_BOUND('',#62,.T.);
#43=FACE_OUTER_BOUND('',#63,.T.);
#44=FACE_OUTER_BOUND('',#64,.T.);
#45=FACE_OUTER_BOUND('',#66,.T.);
#46=FACE_OUTER_BOUND('',#67,.T.);
#47=FACE_OUTER_BOUND('',#68,.T.);
#48=FACE_OUTER_BOUND('',#69,.T.);
#49=FACE_OUTER_BOUND('',#71,.T.);
#50=FACE_OUTER_BOUND('',#72,.T.);
#51=FACE_OUTER_BOUND('',#74,.T.);
#52=FACE_OUTER_BOUND('',#76,.T.);
#53=FACE_OUTER_BOUND('',#78,.T.);
#54=EDGE_LOOP('',(#216,#217,#218,#219));
#55=EDGE_LOOP('',(#220,#221,#222,#223));
#56=EDGE_LOOP('',(#224,#225,#226,#227));
#57=EDGE_LOOP('',(#228,#229,#230,#231));
#58=EDGE_LOOP('',(#232));
#59=EDGE_LOOP('',(#233,#234,#235,#236));
#60=EDGE_LOOP('',(#237,#238,#239,#240));
#61=EDGE_LOOP('',(#241,#242,#243,#244));
#62=EDGE_LOOP('',(#245,#246,#247,#248));
#63=EDGE_LOOP('',(#249,#250,#251,#252));
#64=EDGE_LOOP('',(#253,#254,#255,#256,#257,#258,#259,#260));
#65=EDGE_LOOP('',(#261,#262,#263,#264));
#66=EDGE_LOOP('',(#265,#266,#267,#268));
#67=EDGE_LOOP('',(#269,#270,#271,#272));
#68=EDGE_LOOP('',(#273,#274,#275,#276));
#69=EDGE_LOOP('',(#277));
#70=EDGE_LOOP('',(#278));
#71=EDGE_LOOP('',(#279,#280,#281,#282));
#72=EDGE_LOOP('',(#283,#284,#285,#286,#287,#288,#289,#290));
#73=EDGE_LOOP('',(#291));
#74=EDGE_LOOP('',(#292));
#75=EDGE_LOOP('',(#293));
#76=EDGE_LOOP('',(#294));
#77=EDGE_LOOP('',(#295));
#78=EDGE_LOOP('',(#296));
#79=EDGE_LOOP('',(#297));
#80=CIRCLE('',#332,2.1);
#81=CIRCLE('',#337,10.);
#82=CIRCLE('',#338,10.);
#83=CIRCLE('',#344,14.);
#84=CIRCLE('',#345,12.);
#85=CIRCLE('',#346,14.);
#86=CIRCLE('',#347,12.);
#87=CIRCLE('',#349,12.);
#88=CIRCLE('',#351,14.);
#89=CIRCLE('',#353,12.);
#90=CIRCLE('',#355,12.9474411167423);
#91=CIRCLE('',#357,14.);
#92=CIRCLE('',#359,14.);
#93=CIRCLE('',#361,16.);
#94=CIRCLE('',#363,16.);
#95=LINE('',#483,#120);
#96=LINE('',#486,#121);
#97=LINE('',#489,#122);
#98=LINE('',#491,#123);
#99=LINE('',#492,#124);
#100=LINE('',#495,#125);
#101=LINE('',#497,#126);
#102=LINE('',#498,#127);
#103=LINE('',#500,#128);
#104=LINE('',#508,#129);
#105=LINE('',#510,#130);
#106=LINE('',#512,#131);
#107=LINE('',#513,#132);
#108=LINE('',#517,#133);
#109=LINE('',#519,#134);
#110=LINE('',#521,#135);
#111=LINE('',#522,#136);
#112=LINE('',#526,#137);
#113=LINE('',#528,#138);
#114=LINE('',#530,#139);
#115=LINE('',#531,#140);
#116=LINE('',#535,#141);
#117=LINE('',#537,#142);
#118=LINE('',#539,#143);
#119=LINE('',#540,#144);
#120=VECTOR('',#369,10.);
#121=VECTOR('',#372,10.);
#122=VECTOR('',#375,10.);
#123=VECTOR('',#376,10.);
#124=VECTOR('',#377,10.);
#125=VECTOR('',#380,10.);
#126=VECTOR('',#381,10.);
#127=VECTOR('',#382,10.);
#128=VECTOR('',#385,10.);
#129=VECTOR('',#394,10.);
#130=VECTOR('',#395,10.);
#131=VECTOR('',#396,10.);
#132=VECTOR('',#397,10.);
#133=VECTOR('',#400,10.);
#134=VECTOR('',#401,10.);
#135=VECTOR('',#402,10.);
#136=VECTOR('',#403,10.);
#137=VECTOR('',#406,10.);
#138=VECTOR('',#407,10.);
#139=VECTOR('',#408,10.);
#140=VECTOR('',#409,10.);
#141=VECTOR('',#412,10.);
#142=VECTOR('',#413,10.);
#143=VECTOR('',#414,10.);
#144=VECTOR('',#415,10.);
#145=B_SPLINE_CURVE_WITH_KNOTS('',3,(#464,#465,#466,#467,#468,#469,#470,
#471,#472,#473,#474,#475,#476,#477,#478,#479,#480,#481),.UNSPECIFIED.,.F.,
 .F.,(4,2,2,2,2,2,2,2,4),(0.,0.0793616477694786,0.158723295538957,0.238079516586307,
0.317435737633656,0.396791958681006,0.476148179728355,0.555509827497834,
0.634871475267313),.UNSPECIFIED.);
#146=VERTEX_POINT('',#462);
#147=VERTEX_POINT('',#463);
#148=VERTEX_POINT('',#482);
#149=VERTEX_POINT('',#484);
#150=VERTEX_POINT('',#488);
#151=VERTEX_POINT('',#490);
#152=VERTEX_POINT('',#494);
#153=VERTEX_POINT('',#496);
#154=VERTEX_POINT('',#502);
#155=VERTEX_POINT('',#506);
#156=VERTEX_POINT('',#507);
#157=VERTEX_POINT('',#509);
#158=VERTEX_POINT('',#511);
#159=VERTEX_POINT('',#515);
#160=VERTEX_POINT('',#516);
#161=VERTEX_POINT('',#518);
#162=VERTEX_POINT('',#520);
#163=VERTEX_POINT('',#524);
#164=VERTEX_POINT('',#525);
#165=VERTEX_POINT('',#527);
#166=VERTEX_POINT('',#529);
#167=VERTEX_POINT('',#533);
#168=VERTEX_POINT('',#534);
#169=VERTEX_POINT('',#536);
#170=VERTEX_POINT('',#538);
#171=VERTEX_POINT('',#553);
#172=VERTEX_POINT('',#558);
#173=VERTEX_POINT('',#561);
#174=VERTEX_POINT('',#564);
#175=EDGE_CURVE('',#146,#147,#145,.T.);
#176=EDGE_CURVE('',#146,#148,#95,.T.);
#177=EDGE_CURVE('',#148,#149,#80,.T.);
#178=EDGE_CURVE('',#147,#149,#96,.T.);
#179=EDGE_CURVE('',#147,#150,#97,.T.);
#180=EDGE_CURVE('',#149,#151,#98,.T.);
#181=EDGE_CURVE('',#150,#151,#99,.T.);
#182=EDGE_CURVE('',#152,#146,#100,.T.);
#183=EDGE_CURVE('',#153,#152,#101,.T.);
#184=EDGE_CURVE('',#153,#148,#102,.T.);
#185=EDGE_CURVE('',#151,#153,#103,.T.);
#186=EDGE_CURVE('',#154,#154,#81,.T.);
#187=EDGE_CURVE('',#152,#150,#82,.T.);
#188=EDGE_CURVE('',#155,#156,#104,.T.);
#189=EDGE_CURVE('',#155,#157,#105,.T.);
#190=EDGE_CURVE('',#158,#157,#106,.T.);
#191=EDGE_CURVE('',#156,#158,#107,.T.);
#192=EDGE_CURVE('',#159,#160,#108,.T.);
#193=EDGE_CURVE('',#161,#159,#109,.T.);
#194=EDGE_CURVE('',#162,#161,#110,.T.);
#195=EDGE_CURVE('',#162,#160,#111,.T.);
#196=EDGE_CURVE('',#163,#164,#112,.T.);
#197=EDGE_CURVE('',#165,#163,#113,.T.);
#198=EDGE_CURVE('',#166,#165,#114,.T.);
#199=EDGE_CURVE('',#164,#166,#115,.T.);
#200=EDGE_CURVE('',#167,#168,#116,.T.);
#201=EDGE_CURVE('',#169,#167,#117,.T.);
#202=EDGE_CURVE('',#170,#169,#118,.T.);
#203=EDGE_CURVE('',#168,#170,#119,.T.);
#204=EDGE_CURVE('',#157,#162,#83,.T.);
#205=EDGE_CURVE('',#168,#155,#84,.T.);
#206=EDGE_CURVE('',#165,#170,#85,.T.);
#207=EDGE_CURVE('',#160,#163,#86,.T.);
#208=EDGE_CURVE('',#167,#156,#87,.T.);
#209=EDGE_CURVE('',#169,#158,#88,.T.);
#210=EDGE_CURVE('',#159,#164,#89,.T.);
#211=EDGE_CURVE('',#171,#171,#90,.T.);
#212=EDGE_CURVE('',#161,#166,#91,.T.);
#213=EDGE_CURVE('',#172,#172,#92,.T.);
#214=EDGE_CURVE('',#173,#173,#93,.T.);
#215=EDGE_CURVE('',#174,#174,#94,.T.);
#216=ORIENTED_EDGE('',*,*,#175,.F.);
#217=ORIENTED_EDGE('',*,*,#176,.T.);
#218=ORIENTED_EDGE('',*,*,#177,.T.);
#219=ORIENTED_EDGE('',*,*,#178,.F.);
#220=ORIENTED_EDGE('',*,*,#179,.F.);
#221=ORIENTED_EDGE('',*,*,#178,.T.);
#222=ORIENTED_EDGE('',*,*,#180,.T.);
#223=ORIENTED_EDGE('',*,*,#181,.F.);
#224=ORIENTED_EDGE('',*,*,#182,.F.);
#225=ORIENTED_EDGE('',*,*,#183,.F.);
#226=ORIENTED_EDGE('',*,*,#184,.T.);
#227=ORIENTED_EDGE('',*,*,#176,.F.);
#228=ORIENTED_EDGE('',*,*,#185,.F.);
#229=ORIENTED_EDGE('',*,*,#180,.F.);
#230=ORIENTED_EDGE('',*,*,#177,.F.);
#231=ORIENTED_EDGE('',*,*,#184,.F.);
#232=ORIENTED_EDGE('',*,*,#186,.T.);
#233=ORIENTED_EDGE('',*,*,#182,.T.);
#234=ORIENTED_EDGE('',*,*,#175,.T.);
#235=ORIENTED_EDGE('',*,*,#179,.T.);
#236=ORIENTED_EDGE('',*,*,#187,.F.);
#237=ORIENTED_EDGE('',*,*,#188,.F.);
#238=ORIENTED_EDGE('',*,*,#189,.T.);
#239=ORIENTED_EDGE('',*,*,#190,.F.);
#240=ORIENTED_EDGE('',*,*,#191,.F.);
#241=ORIENTED_EDGE('',*,*,#192,.F.);
#242=ORIENTED_EDGE('',*,*,#193,.F.);
#243=ORIENTED_EDGE('',*,*,#194,.F.);
#244=ORIENTED_EDGE('',*,*,#195,.T.);
#245=ORIENTED_EDGE('',*,*,#196,.F.);
#246=ORIENTED_EDGE('',*,*,#197,.F.);
#247=ORIENTED_EDGE('',*,*,#198,.F.);
#248=ORIENTED_EDGE('',*,*,#199,.F.);
#249=ORIENTED_EDGE('',*,*,#200,.F.);
#250=ORIENTED_EDGE('',*,*,#201,.F.);
#251=ORIENTED_EDGE('',*,*,#202,.F.);
#252=ORIENTED_EDGE('',*,*,#203,.F.);
#253=ORIENTED_EDGE('',*,*,#195,.F.);
#254=ORIENTED_EDGE('',*,*,#204,.F.);
#255=ORIENTED_EDGE('',*,*,#189,.F.);
#256=ORIENTED_EDGE('',*,*,#205,.F.);
#257=ORIENTED_EDGE('',*,*,#203,.T.);
#258=ORIENTED_EDGE('',*,*,#206,.F.);
#259=ORIENTED_EDGE('',*,*,#197,.T.);
#260=ORIENTED_EDGE('',*,*,#207,.F.);
#261=ORIENTED_EDGE('',*,*,#183,.T.);
#262=ORIENTED_EDGE('',*,*,#187,.T.);
#263=ORIENTED_EDGE('',*,*,#181,.T.);
#264=ORIENTED_EDGE('',*,*,#185,.T.);
#265=ORIENTED_EDGE('',*,*,#188,.T.);
#266=ORIENTED_EDGE('',*,*,#208,.F.);
#267=ORIENTED_EDGE('',*,*,#200,.T.);
#268=ORIENTED_EDGE('',*,*,#205,.T.);
#269=ORIENTED_EDGE('',*,*,#191,.T.);
#270=ORIENTED_EDGE('',*,*,#209,.F.);
#271=ORIENTED_EDGE('',*,*,#201,.T.);
#272=ORIENTED_EDGE('',*,*,#208,.T.);
#273=ORIENTED_EDGE('',*,*,#192,.T.);
#274=ORIENTED_EDGE('',*,*,#207,.T.);
#275=ORIENTED_EDGE('',*,*,#196,.T.);
#276=ORIENTED_EDGE('',*,*,#210,.F.);
#277=ORIENTED_EDGE('',*,*,#211,.F.);
#278=ORIENTED_EDGE('',*,*,#186,.F.);
#279=ORIENTED_EDGE('',*,*,#193,.T.);
#280=ORIENTED_EDGE('',*,*,#210,.T.);
#281=ORIENTED_EDGE('',*,*,#199,.T.);
#282=ORIENTED_EDGE('',*,*,#212,.F.);
#283=ORIENTED_EDGE('',*,*,#194,.T.);
#284=ORIENTED_EDGE('',*,*,#212,.T.);
#285=ORIENTED_EDGE('',*,*,#198,.T.);
#286=ORIENTED_EDGE('',*,*,#206,.T.);
#287=ORIENTED_EDGE('',*,*,#202,.T.);
#288=ORIENTED_EDGE('',*,*,#209,.T.);
#289=ORIENTED_EDGE('',*,*,#190,.T.);
#290=ORIENTED_EDGE('',*,*,#204,.T.);
#291=ORIENTED_EDGE('',*,*,#213,.F.);
#292=ORIENTED_EDGE('',*,*,#214,.F.);
#293=ORIENTED_EDGE('',*,*,#213,.T.);
#294=ORIENTED_EDGE('',*,*,#214,.T.);
#295=ORIENTED_EDGE('',*,*,#215,.F.);
#296=ORIENTED_EDGE('',*,*,#215,.T.);
#297=ORIENTED_EDGE('',*,*,#211,.T.);
#298=CYLINDRICAL_SURFACE('',#331,2.1);
#299=CYLINDRICAL_SURFACE('',#336,10.);
#300=CYLINDRICAL_SURFACE('',#348,12.);
#301=CYLINDRICAL_SURFACE('',#352,12.);
#302=CYLINDRICAL_SURFACE('',#358,14.);
#303=CYLINDRICAL_SURFACE('',#362,16.);
#304=ADVANCED_FACE('',(#35),#298,.F.);
#305=ADVANCED_FACE('',(#36),#23,.F.);
#306=ADVANCED_FACE('',(#37),#24,.F.);
#307=ADVANCED_FACE('',(#38),#25,.T.);
#308=ADVANCED_FACE('',(#39,#16),#299,.F.);
#309=ADVANCED_FACE('',(#40),#26,.F.);
#310=ADVANCED_FACE('',(#41),#27,.F.);
#311=ADVANCED_FACE('',(#42),#28,.F.);
#312=ADVANCED_FACE('',(#43),#29,.F.);
#313=ADVANCED_FACE('',(#44,#17),#30,.F.);
#314=ADVANCED_FACE('',(#45),#300,.F.);
#315=ADVANCED_FACE('',(#46),#31,.T.);
#316=ADVANCED_FACE('',(#47),#301,.F.);
#317=ADVANCED_FACE('',(#48,#18),#15,.F.);
#318=ADVANCED_FACE('',(#49),#32,.T.);
#319=ADVANCED_FACE('',(#50,#19),#302,.T.);
#320=ADVANCED_FACE('',(#51,#20),#33,.T.);
#321=ADVANCED_FACE('',(#52,#21),#303,.T.);
#322=ADVANCED_FACE('',(#53,#22),#34,.T.);
#323=CLOSED_SHELL('',(#304,#305,#306,#307,#308,#309,#310,#311,#312,#313,
#314,#315,#316,#317,#318,#319,#320,#321,#322));
#324=DATE_TIME_ROLE('creation_date');
#325=APPLIED_DATE_AND_TIME_ASSIGNMENT(#326,#324,(#581));
#326=DATE_AND_TIME(#327,#328);
#327=CALENDAR_DATE(2021,18,2);
#328=LOCAL_TIME(18,49,19.,#329);
#329=COORDINATED_UNIVERSAL_TIME_OFFSET(0,0,.BEHIND.);
#330=AXIS2_PLACEMENT_3D('placement',#460,#365,#366);
#331=AXIS2_PLACEMENT_3D('',#461,#367,#368);
#332=AXIS2_PLACEMENT_3D('',#485,#370,#371);
#333=AXIS2_PLACEMENT_3D('',#487,#373,#374);
#334=AXIS2_PLACEMENT_3D('',#493,#378,#379);
#335=AXIS2_PLACEMENT_3D('',#499,#383,#384);
#336=AXIS2_PLACEMENT_3D('',#501,#386,#387);
#337=AXIS2_PLACEMENT_3D('',#503,#388,#389);
#338=AXIS2_PLACEMENT_3D('',#504,#390,#391);
#339=AXIS2_PLACEMENT_3D('',#505,#392,#393);
#340=AXIS2_PLACEMENT_3D('',#514,#398,#399);
#341=AXIS2_PLACEMENT_3D('',#523,#404,#405);
#342=AXIS2_PLACEMENT_3D('',#532,#410,#411);
#343=AXIS2_PLACEMENT_3D('',#541,#416,#417);
#344=AXIS2_PLACEMENT_3D('',#542,#418,#419);
#345=AXIS2_PLACEMENT_3D('',#543,#420,#421);
#346=AXIS2_PLACEMENT_3D('',#544,#422,#423);
#347=AXIS2_PLACEMENT_3D('',#545,#424,#425);
#348=AXIS2_PLACEMENT_3D('',#546,#426,#427);
#349=AXIS2_PLACEMENT_3D('',#547,#428,#429);
#350=AXIS2_PLACEMENT_3D('',#548,#430,#431);
#351=AXIS2_PLACEMENT_3D('',#549,#432,#433);
#352=AXIS2_PLACEMENT_3D('',#550,#434,#435);
#353=AXIS2_PLACEMENT_3D('',#551,#436,#437);
#354=AXIS2_PLACEMENT_3D('',#552,#438,#439);
#355=AXIS2_PLACEMENT_3D('',#554,#440,#441);
#356=AXIS2_PLACEMENT_3D('',#555,#442,#443);
#357=AXIS2_PLACEMENT_3D('',#556,#444,#445);
#358=AXIS2_PLACEMENT_3D('',#557,#446,#447);
#359=AXIS2_PLACEMENT_3D('',#559,#448,#449);
#360=AXIS2_PLACEMENT_3D('',#560,#450,#451);
#361=AXIS2_PLACEMENT_3D('',#562,#452,#453);
#362=AXIS2_PLACEMENT_3D('',#563,#454,#455);
#363=AXIS2_PLACEMENT_3D('',#565,#456,#457);
#364=AXIS2_PLACEMENT_3D('',#566,#458,#459);
#365=DIRECTION('axis',(0.,0.,1.));
#366=DIRECTION('refdir',(1.,0.,0.));
#367=DIRECTION('center_axis',(0.,0.,-1.));
#368=DIRECTION('ref_axis',(0.,-1.,0.));
#369=DIRECTION('',(0.,0.,-1.));
#370=DIRECTION('center_axis',(0.,0.,-1.));
#371=DIRECTION('ref_axis',(0.,-1.,0.));
#372=DIRECTION('',(0.,0.,-1.));
#373=DIRECTION('center_axis',(-2.26156542053273E-16,1.,0.));
#374=DIRECTION('ref_axis',(1.,2.22044604925031E-16,0.));
#375=DIRECTION('',(1.,0.,0.));
#376=DIRECTION('',(1.,2.26156542053273E-16,0.));
#377=DIRECTION('',(0.,0.,-1.));
#378=DIRECTION('center_axis',(-2.46716227694479E-16,-1.,0.));
#379=DIRECTION('ref_axis',(-1.,2.66453525910038E-16,0.));
#380=DIRECTION('',(-1.,0.,0.));
#381=DIRECTION('',(0.,0.,1.));
#382=DIRECTION('',(-1.,2.46716227694479E-16,0.));
#383=DIRECTION('center_axis',(0.,0.,1.));
#384=DIRECTION('ref_axis',(1.,0.,0.));
#385=DIRECTION('',(0.,-1.,0.));
#386=DIRECTION('center_axis',(-1.,0.,0.));
#387=DIRECTION('ref_axis',(0.,0.,1.));
#388=DIRECTION('center_axis',(-1.,0.,0.));
#389=DIRECTION('ref_axis',(0.,0.,1.));
#390=DIRECTION('center_axis',(-1.,0.,0.));
#391=DIRECTION('ref_axis',(0.,0.,1.));
#392=DIRECTION('center_axis',(0.,0.,-1.));
#393=DIRECTION('ref_axis',(-1.,0.,0.));
#394=DIRECTION('',(1.,0.,0.));
#395=DIRECTION('',(0.,-1.,0.));
#396=DIRECTION('',(-1.,0.,0.));
#397=DIRECTION('',(0.,-1.,0.));
#398=DIRECTION('center_axis',(0.,0.,-1.));
#399=DIRECTION('ref_axis',(-1.,0.,0.));
#400=DIRECTION('',(-1.,0.,0.));
#401=DIRECTION('',(0.,-1.,0.));
#402=DIRECTION('',(1.,0.,0.));
#403=DIRECTION('',(0.,-1.,0.));
#404=DIRECTION('center_axis',(0.,0.,1.));
#405=DIRECTION('ref_axis',(1.,0.,0.));
#406=DIRECTION('',(1.,0.,0.));
#407=DIRECTION('',(0.,-1.,0.));
#408=DIRECTION('',(-1.,0.,0.));
#409=DIRECTION('',(0.,1.,0.));
#410=DIRECTION('center_axis',(0.,0.,1.));
#411=DIRECTION('ref_axis',(1.,0.,0.));
#412=DIRECTION('',(-1.,0.,0.));
#413=DIRECTION('',(0.,1.,0.));
#414=DIRECTION('',(1.,0.,0.));
#415=DIRECTION('',(0.,-1.,0.));
#416=DIRECTION('center_axis',(-1.,0.,0.));
#417=DIRECTION('ref_axis',(0.,0.,1.));
#418=DIRECTION('center_axis',(-1.,0.,0.));
#419=DIRECTION('ref_axis',(0.,-1.,0.));
#420=DIRECTION('center_axis',(-1.,0.,0.));
#421=DIRECTION('ref_axis',(0.,0.,1.));
#422=DIRECTION('center_axis',(-1.,0.,0.));
#423=DIRECTION('ref_axis',(0.,-1.,0.));
#424=DIRECTION('center_axis',(-1.,0.,0.));
#425=DIRECTION('ref_axis',(0.,0.,1.));
#426=DIRECTION('center_axis',(-1.,0.,0.));
#427=DIRECTION('ref_axis',(0.,0.,1.));
#428=DIRECTION('center_axis',(-1.,0.,0.));
#429=DIRECTION('ref_axis',(0.,0.,1.));
#430=DIRECTION('center_axis',(1.,0.,0.));
#431=DIRECTION('ref_axis',(0.,0.,-1.));
#432=DIRECTION('center_axis',(-1.,0.,0.));
#433=DIRECTION('ref_axis',(0.,0.,1.));
#434=DIRECTION('center_axis',(-1.,0.,0.));
#435=DIRECTION('ref_axis',(0.,0.,1.));
#436=DIRECTION('center_axis',(-1.,0.,0.));
#437=DIRECTION('ref_axis',(0.,0.,1.));
#438=DIRECTION('center_axis',(-1.,0.,0.));
#439=DIRECTION('ref_axis',(0.,0.,1.));
#440=DIRECTION('center_axis',(1.,0.,0.));
#441=DIRECTION('ref_axis',(0.,0.,1.));
#442=DIRECTION('center_axis',(1.,0.,0.));
#443=DIRECTION('ref_axis',(0.,0.,-1.));
#444=DIRECTION('center_axis',(-1.,0.,0.));
#445=DIRECTION('ref_axis',(0.,0.,1.));
#446=DIRECTION('center_axis',(-1.,0.,0.));
#447=DIRECTION('ref_axis',(0.,-1.,0.));
#448=DIRECTION('center_axis',(-1.,0.,0.));
#449=DIRECTION('ref_axis',(0.,0.,1.));
#450=DIRECTION('center_axis',(1.,0.,0.));
#451=DIRECTION('ref_axis',(0.,0.,-1.));
#452=DIRECTION('center_axis',(-1.,0.,0.));
#453=DIRECTION('ref_axis',(0.,0.,1.));
#454=DIRECTION('center_axis',(-1.,0.,0.));
#455=DIRECTION('ref_axis',(0.,-1.,0.));
#456=DIRECTION('center_axis',(-1.,0.,0.));
#457=DIRECTION('ref_axis',(0.,0.,1.));
#458=DIRECTION('center_axis',(-1.,0.,0.));
#459=DIRECTION('ref_axis',(0.,0.,1.));
#460=CARTESIAN_POINT('',(0.,0.,0.));
#461=CARTESIAN_POINT('Origin',(6.,0.,0.));
#462=CARTESIAN_POINT('',(6.,-2.09999999999999,-9.77701385904715));
#463=CARTESIAN_POINT('',(6.,2.09999999999999,-9.77701385904715));
#464=CARTESIAN_POINT('Ctrl Pts',(6.,-2.1,-9.77701385904715));
#465=CARTESIAN_POINT('Ctrl Pts',(5.73546117410174,-2.1,-9.77701385904715));
#466=CARTESIAN_POINT('Ctrl Pts',(5.45384741691314,-2.04697017125528,-9.7888646613217));
#467=CARTESIAN_POINT('Ctrl Pts',(4.93669578698258,-1.83241751515529,-9.83128699911475));
#468=CARTESIAN_POINT('Ctrl Pts',(4.70108738704556,-1.67093586802906,-9.86120447966487));
#469=CARTESIAN_POINT('Ctrl Pts',(4.32907685138193,-1.29892533236543,-9.91706451563795));
#470=CARTESIAN_POINT('Ctrl Pts',(4.16758524894312,-1.06331154992714,-9.9466914446598));
#471=CARTESIAN_POINT('Ctrl Pts',(3.95302536275572,-0.54614114398353,-9.98844492372413));
#472=CARTESIAN_POINT('Ctrl Pts',(3.9,-0.264520736824498,-10.));
#473=CARTESIAN_POINT('Ctrl Pts',(3.9,0.264520736824499,-10.));
#474=CARTESIAN_POINT('Ctrl Pts',(3.95302536275572,0.54614114398353,-9.98844492372413));
#475=CARTESIAN_POINT('Ctrl Pts',(4.16758524894312,1.06331154992714,-9.9466914446598));
#476=CARTESIAN_POINT('Ctrl Pts',(4.32907685138193,1.29892533236543,-9.91706451563795));
#477=CARTESIAN_POINT('Ctrl Pts',(4.70108738704557,1.67093586802907,-9.86120447966487));
#478=CARTESIAN_POINT('Ctrl Pts',(4.93669578698258,1.83241751515529,-9.83128699911475));
#479=CARTESIAN_POINT('Ctrl Pts',(5.45384741691314,2.04697017125528,-9.7888646613217));
#480=CARTESIAN_POINT('Ctrl Pts',(5.73546117410174,2.1,-9.77701385904715));
#481=CARTESIAN_POINT('Ctrl Pts',(6.,2.1,-9.77701385904715));
#482=CARTESIAN_POINT('',(6.,-2.09999999999999,-11.2));
#483=CARTESIAN_POINT('',(6.,-2.09999999999999,0.));
#484=CARTESIAN_POINT('',(6.,2.09999999999999,-11.2));
#485=CARTESIAN_POINT('Origin',(6.,0.,-11.2));
#486=CARTESIAN_POINT('',(6.,2.09999999999999,0.));
#487=CARTESIAN_POINT('Origin',(6.,2.09999999999999,0.));
#488=CARTESIAN_POINT('',(31.,2.1,-9.77701385904715));
#489=CARTESIAN_POINT('',(8.5,2.09999999999999,-9.77701385904715));
#490=CARTESIAN_POINT('',(31.,2.1,-11.2));
#491=CARTESIAN_POINT('',(6.,2.09999999999999,-11.2));
#492=CARTESIAN_POINT('',(31.,2.1,5.));
#493=CARTESIAN_POINT('Origin',(33.,-2.1,0.));
#494=CARTESIAN_POINT('',(31.,-2.1,-9.77701385904715));
#495=CARTESIAN_POINT('',(8.5,-2.09999999999999,-9.77701385904715));
#496=CARTESIAN_POINT('',(31.,-2.1,-11.2));
#497=CARTESIAN_POINT('',(31.,-2.1,5.));
#498=CARTESIAN_POINT('',(33.,-2.1,-11.2));
#499=CARTESIAN_POINT('Origin',(19.5000130744412,-1.74732252065513E-17,-11.2));
#500=CARTESIAN_POINT('',(31.,-8.73661260327567E-18,-11.2));
#501=CARTESIAN_POINT('Origin',(8.5,0.,0.));
#502=CARTESIAN_POINT('',(-14.,0.,10.));
#503=CARTESIAN_POINT('Origin',(-14.,0.,0.));
#504=CARTESIAN_POINT('Origin',(31.,0.,0.));
#505=CARTESIAN_POINT('Origin',(36.,0.,4.05));
#506=CARTESIAN_POINT('',(31.,-11.2959063381386,4.05));
#507=CARTESIAN_POINT('',(34.5,-11.2959063381386,4.05));
#508=CARTESIAN_POINT('',(32.75,-11.2959063381386,4.05));
#509=CARTESIAN_POINT('',(31.,-13.4013991806826,4.05));
#510=CARTESIAN_POINT('',(31.,0.,4.05));
#511=CARTESIAN_POINT('',(34.5,-13.4013991806826,4.05));
#512=CARTESIAN_POINT('',(12.25,-13.4013991806826,4.05));
#513=CARTESIAN_POINT('',(34.5,-7.,4.05));
#514=CARTESIAN_POINT('Origin',(36.,0.,4.05));
#515=CARTESIAN_POINT('',(34.5,11.2959063381386,4.05));
#516=CARTESIAN_POINT('',(31.,11.2959063381386,4.05));
#517=CARTESIAN_POINT('',(32.75,11.2959063381386,4.05));
#518=CARTESIAN_POINT('',(34.5,13.4013991806826,4.05));
#519=CARTESIAN_POINT('',(34.5,-7.,4.05));
#520=CARTESIAN_POINT('',(31.,13.4013991806826,4.05));
#521=CARTESIAN_POINT('',(12.25,13.4013991806826,4.05));
#522=CARTESIAN_POINT('',(31.,0.,4.05));
#523=CARTESIAN_POINT('Origin',(31.,0.,-4.05));
#524=CARTESIAN_POINT('',(31.,11.2959063381386,-4.05));
#525=CARTESIAN_POINT('',(34.5,11.2959063381386,-4.05));
#526=CARTESIAN_POINT('',(32.75,11.2959063381386,-4.05));
#527=CARTESIAN_POINT('',(31.,13.4013991806826,-4.05));
#528=CARTESIAN_POINT('',(31.,0.,-4.05));
#529=CARTESIAN_POINT('',(34.5,13.4013991806826,-4.05));
#530=CARTESIAN_POINT('',(12.25,13.4013991806826,-4.05));
#531=CARTESIAN_POINT('',(34.5,-7.,-4.05));
#532=CARTESIAN_POINT('Origin',(31.,0.,-4.05));
#533=CARTESIAN_POINT('',(34.5,-11.2959063381386,-4.05));
#534=CARTESIAN_POINT('',(31.,-11.2959063381386,-4.05));
#535=CARTESIAN_POINT('',(32.75,-11.2959063381386,-4.05));
#536=CARTESIAN_POINT('',(34.5,-13.4013991806826,-4.05));
#537=CARTESIAN_POINT('',(34.5,-7.,-4.05));
#538=CARTESIAN_POINT('',(31.,-13.4013991806826,-4.05));
#539=CARTESIAN_POINT('',(12.25,-13.4013991806826,-4.05));
#540=CARTESIAN_POINT('',(31.,0.,-4.05));
#541=CARTESIAN_POINT('Origin',(31.,0.,10.));
#542=CARTESIAN_POINT('Origin',(31.,0.,0.));
#543=CARTESIAN_POINT('Origin',(31.,0.,0.));
#544=CARTESIAN_POINT('Origin',(31.,0.,0.));
#545=CARTESIAN_POINT('Origin',(31.,0.,0.));
#546=CARTESIAN_POINT('Origin',(32.75,0.,0.));
#547=CARTESIAN_POINT('Origin',(34.5,0.,0.));
#548=CARTESIAN_POINT('Origin',(34.5,-14.,0.));
#549=CARTESIAN_POINT('Origin',(34.5,0.,0.));
#550=CARTESIAN_POINT('Origin',(32.75,0.,0.));
#551=CARTESIAN_POINT('Origin',(34.5,0.,0.));
#552=CARTESIAN_POINT('Origin',(-20.,0.,0.));
#553=CARTESIAN_POINT('',(-25.,1.58560423207673E-15,-12.9474411167423));
#554=CARTESIAN_POINT('Origin',(-25.,0.,0.));
#555=CARTESIAN_POINT('Origin',(34.5,-14.,0.));
#556=CARTESIAN_POINT('Origin',(34.5,0.,0.));
#557=CARTESIAN_POINT('Origin',(12.25,0.,0.));
#558=CARTESIAN_POINT('',(-10.,-14.,0.));
#559=CARTESIAN_POINT('Origin',(-10.,0.,0.));
#560=CARTESIAN_POINT('Origin',(-10.,-16.,0.));
#561=CARTESIAN_POINT('',(-10.,-16.,0.));
#562=CARTESIAN_POINT('Origin',(-10.,0.,0.));
#563=CARTESIAN_POINT('Origin',(-17.5,0.,0.));
#564=CARTESIAN_POINT('',(-25.,-16.,0.));
#565=CARTESIAN_POINT('Origin',(-25.,0.,0.));
#566=CARTESIAN_POINT('Origin',(-25.,-2.22044604925031E-15,0.));
#567=UNCERTAINTY_MEASURE_WITH_UNIT(LENGTH_MEASURE(0.01),#571,
'DISTANCE_ACCURACY_VALUE',
'Maximum model space distance between geometric entities at asserted c
onnectivities');
#568=UNCERTAINTY_MEASURE_WITH_UNIT(LENGTH_MEASURE(1.E-6),#571,
'DISTANCE_ACCURACY_VALUE',
'Maximum model space distance between geometric entities at asserted c
onnectivities');
#569=(
GEOMETRIC_REPRESENTATION_CONTEXT(3)
GLOBAL_UNCERTAINTY_ASSIGNED_CONTEXT((#567))
GLOBAL_UNIT_ASSIGNED_CONTEXT((#571,#574,#572))
REPRESENTATION_CONTEXT('','3D')
);
#570=(
GEOMETRIC_REPRESENTATION_CONTEXT(3)
GLOBAL_UNCERTAINTY_ASSIGNED_CONTEXT((#568))
GLOBAL_UNIT_ASSIGNED_CONTEXT((#571,#574,#572))
REPRESENTATION_CONTEXT('','3D')
);
#571=(
LENGTH_UNIT()
NAMED_UNIT(*)
SI_UNIT(.MILLI.,.METRE.)
);
#572=(
NAMED_UNIT(*)
SI_UNIT($,.STERADIAN.)
SOLID_ANGLE_UNIT()
);
#573=DIMENSIONAL_EXPONENTS(0.,0.,0.,0.,0.,0.,0.);
#574=(
CONVERSION_BASED_UNIT('degree',#576)
NAMED_UNIT(#573)
PLANE_ANGLE_UNIT()
);
#575=(
NAMED_UNIT(*)
PLANE_ANGLE_UNIT()
SI_UNIT($,.RADIAN.)
);
#576=PLANE_ANGLE_MEASURE_WITH_UNIT(PLANE_ANGLE_MEASURE(0.01745329252),#575);
#577=SHAPE_DEFINITION_REPRESENTATION(#578,#579);
#578=PRODUCT_DEFINITION_SHAPE('',$,#581);
#579=SHAPE_REPRESENTATION('',(#330),#569);
#580=PRODUCT_DEFINITION_CONTEXT('part definition',#585,'design');
#581=PRODUCT_DEFINITION('axe_porte_outil_cone F',
'axe_porte_outil_cone F',#582,#580);
#582=PRODUCT_DEFINITION_FORMATION('',$,#587);
#583=PRODUCT_RELATED_PRODUCT_CATEGORY('axe_porte_outil_cone F',
'axe_porte_outil_cone F',(#587));
#584=APPLICATION_PROTOCOL_DEFINITION('international standard',
'automotive_design',2009,#585);
#585=APPLICATION_CONTEXT(
'Core Data for Automotive Mechanical Design Process');
#586=PRODUCT_CONTEXT('part definition',#585,'mechanical');
#587=PRODUCT('axe_porte_outil_cone F','axe_porte_outil_cone F',$,(#586));
#588=PRESENTATION_STYLE_ASSIGNMENT((#589));
#589=SURFACE_STYLE_USAGE(.BOTH.,#590);
#590=SURFACE_SIDE_STYLE('',(#591));
#591=SURFACE_STYLE_FILL_AREA(#592);
#592=FILL_AREA_STYLE('',(#593));
#593=FILL_AREA_STYLE_COLOUR('',#594);
#594=COLOUR_RGB('',0.745098039215686,0.737254901960784,0.729411764705882);
ENDSEC;
END-ISO-10303-21;
