ISO-10303-21;
HEADER;
/* Generated by software containing ST-Developer
 * from STEP Tools, Inc. (www.steptools.com) 
 */

FILE_DESCRIPTION(
/* description */ (''),
/* implementation_level */ '2;1');

FILE_NAME(
/* name */ 
'E:\\stephane_larhant\\step\\chariot_reglage_angulaire_tigefiletee.stp',

/* time_stamp */ '2021-03-29T18:30:38+02:00',
/* author */ ('Utilisateur'),
/* organization */ (''),
/* preprocessor_version */ 'ST-DEVELOPER v16.5',
/* originating_system */ 'Autodesk Inventor 2017',
/* authorisation */ '');

FILE_SCHEMA (('AUTOMOTIVE_DESIGN { 1 0 10303 214 3 1 1 }'));
ENDSEC;

DATA;
#10=MECHANICAL_DESIGN_GEOMETRIC_PRESENTATION_REPRESENTATION('',(#13),#353);
#11=SHAPE_REPRESENTATION_RELATIONSHIP('SRR','None',#362,#12);
#12=ADVANCED_BREP_SHAPE_REPRESENTATION('',(#14),#352);
#13=STYLED_ITEM('',(#371),#14);
#14=MANIFOLD_SOLID_BREP('Solide1',#203);
#15=LINE('',#319,#29);
#16=LINE('',#321,#30);
#17=LINE('',#322,#31);
#18=LINE('',#325,#32);
#19=LINE('',#327,#33);
#20=LINE('',#328,#34);
#21=LINE('',#333,#35);
#22=LINE('',#334,#36);
#23=LINE('',#335,#37);
#24=LINE('',#338,#38);
#25=LINE('',#339,#39);
#26=LINE('',#342,#40);
#27=LINE('',#343,#41);
#28=LINE('',#347,#42);
#29=VECTOR('',#262,10.);
#30=VECTOR('',#263,10.);
#31=VECTOR('',#264,10.);
#32=VECTOR('',#267,10.);
#33=VECTOR('',#268,10.);
#34=VECTOR('',#269,10.);
#35=VECTOR('',#274,10.);
#36=VECTOR('',#275,10.);
#37=VECTOR('',#276,10.);
#38=VECTOR('',#279,10.);
#39=VECTOR('',#280,10.);
#40=VECTOR('',#283,10.);
#41=VECTOR('',#284,10.);
#42=VECTOR('',#291,10.);
#43=PLANE('',#219);
#44=PLANE('',#223);
#45=PLANE('',#224);
#46=PLANE('',#225);
#47=PLANE('',#227);
#48=PLANE('',#228);
#49=PLANE('',#231);
#50=PLANE('',#232);
#51=PLANE('',#233);
#52=CYLINDRICAL_SURFACE('',#214,3.);
#53=CYLINDRICAL_SURFACE('',#220,2.6);
#54=CYLINDRICAL_SURFACE('',#229,6.);
#55=FACE_BOUND('',#74,.T.);
#56=FACE_BOUND('',#76,.T.);
#57=FACE_BOUND('',#79,.T.);
#58=FACE_BOUND('',#83,.T.);
#59=FACE_BOUND('',#88,.T.);
#60=FACE_OUTER_BOUND('',#73,.T.);
#61=FACE_OUTER_BOUND('',#75,.T.);
#62=FACE_OUTER_BOUND('',#77,.T.);
#63=FACE_OUTER_BOUND('',#78,.T.);
#64=FACE_OUTER_BOUND('',#80,.T.);
#65=FACE_OUTER_BOUND('',#81,.T.);
#66=FACE_OUTER_BOUND('',#82,.T.);
#67=FACE_OUTER_BOUND('',#84,.T.);
#68=FACE_OUTER_BOUND('',#85,.T.);
#69=FACE_OUTER_BOUND('',#86,.T.);
#70=FACE_OUTER_BOUND('',#87,.T.);
#71=FACE_OUTER_BOUND('',#89,.T.);
#72=FACE_OUTER_BOUND('',#90,.T.);
#73=EDGE_LOOP('',(#141));
#74=EDGE_LOOP('',(#142));
#75=EDGE_LOOP('',(#143,#144,#145,#146));
#76=EDGE_LOOP('',(#147));
#77=EDGE_LOOP('',(#148));
#78=EDGE_LOOP('',(#149));
#79=EDGE_LOOP('',(#150));
#80=EDGE_LOOP('',(#151,#152,#153,#154));
#81=EDGE_LOOP('',(#155,#156,#157,#158));
#82=EDGE_LOOP('',(#159,#160,#161,#162,#163,#164));
#83=EDGE_LOOP('',(#165));
#84=EDGE_LOOP('',(#166,#167,#168,#169));
#85=EDGE_LOOP('',(#170,#171,#172,#173));
#86=EDGE_LOOP('',(#174,#175,#176,#177));
#87=EDGE_LOOP('',(#178,#179,#180,#181,#182,#183));
#88=EDGE_LOOP('',(#184));
#89=EDGE_LOOP('',(#185,#186));
#90=EDGE_LOOP('',(#187,#188));
#91=CIRCLE('',#212,3.);
#92=CIRCLE('',#213,2.5);
#93=CIRCLE('',#215,3.);
#94=CIRCLE('',#216,3.);
#95=CIRCLE('',#217,3.);
#96=CIRCLE('',#218,3.);
#97=CIRCLE('',#221,2.6);
#98=CIRCLE('',#222,2.6);
#99=CIRCLE('',#226,6.);
#100=CIRCLE('',#230,6.);
#101=VERTEX_POINT('',#298);
#102=VERTEX_POINT('',#300);
#103=VERTEX_POINT('',#303);
#104=VERTEX_POINT('',#304);
#105=VERTEX_POINT('',#306);
#106=VERTEX_POINT('',#308);
#107=VERTEX_POINT('',#313);
#108=VERTEX_POINT('',#315);
#109=VERTEX_POINT('',#318);
#110=VERTEX_POINT('',#320);
#111=VERTEX_POINT('',#324);
#112=VERTEX_POINT('',#326);
#113=VERTEX_POINT('',#330);
#114=VERTEX_POINT('',#331);
#115=VERTEX_POINT('',#337);
#116=VERTEX_POINT('',#341);
#117=EDGE_CURVE('',#101,#101,#91,.T.);
#118=EDGE_CURVE('',#102,#102,#92,.T.);
#119=EDGE_CURVE('',#103,#104,#93,.T.);
#120=EDGE_CURVE('',#105,#103,#94,.T.);
#121=EDGE_CURVE('',#106,#105,#95,.T.);
#122=EDGE_CURVE('',#104,#106,#96,.T.);
#123=EDGE_CURVE('',#107,#107,#97,.T.);
#124=EDGE_CURVE('',#108,#108,#98,.T.);
#125=EDGE_CURVE('',#109,#103,#15,.T.);
#126=EDGE_CURVE('',#110,#109,#16,.T.);
#127=EDGE_CURVE('',#105,#110,#17,.T.);
#128=EDGE_CURVE('',#111,#106,#18,.T.);
#129=EDGE_CURVE('',#111,#112,#19,.T.);
#130=EDGE_CURVE('',#104,#112,#20,.T.);
#131=EDGE_CURVE('',#113,#114,#99,.T.);
#132=EDGE_CURVE('',#114,#111,#21,.T.);
#133=EDGE_CURVE('',#105,#106,#22,.T.);
#134=EDGE_CURVE('',#110,#113,#23,.T.);
#135=EDGE_CURVE('',#115,#114,#24,.T.);
#136=EDGE_CURVE('',#112,#115,#25,.T.);
#137=EDGE_CURVE('',#116,#109,#26,.T.);
#138=EDGE_CURVE('',#113,#116,#27,.T.);
#139=EDGE_CURVE('',#115,#116,#100,.T.);
#140=EDGE_CURVE('',#104,#103,#28,.T.);
#141=ORIENTED_EDGE('',*,*,#117,.T.);
#142=ORIENTED_EDGE('',*,*,#118,.T.);
#143=ORIENTED_EDGE('',*,*,#119,.F.);
#144=ORIENTED_EDGE('',*,*,#120,.F.);
#145=ORIENTED_EDGE('',*,*,#121,.F.);
#146=ORIENTED_EDGE('',*,*,#122,.F.);
#147=ORIENTED_EDGE('',*,*,#117,.F.);
#148=ORIENTED_EDGE('',*,*,#118,.F.);
#149=ORIENTED_EDGE('',*,*,#123,.F.);
#150=ORIENTED_EDGE('',*,*,#124,.F.);
#151=ORIENTED_EDGE('',*,*,#120,.T.);
#152=ORIENTED_EDGE('',*,*,#125,.F.);
#153=ORIENTED_EDGE('',*,*,#126,.F.);
#154=ORIENTED_EDGE('',*,*,#127,.F.);
#155=ORIENTED_EDGE('',*,*,#122,.T.);
#156=ORIENTED_EDGE('',*,*,#128,.F.);
#157=ORIENTED_EDGE('',*,*,#129,.T.);
#158=ORIENTED_EDGE('',*,*,#130,.F.);
#159=ORIENTED_EDGE('',*,*,#131,.T.);
#160=ORIENTED_EDGE('',*,*,#132,.T.);
#161=ORIENTED_EDGE('',*,*,#128,.T.);
#162=ORIENTED_EDGE('',*,*,#133,.F.);
#163=ORIENTED_EDGE('',*,*,#127,.T.);
#164=ORIENTED_EDGE('',*,*,#134,.T.);
#165=ORIENTED_EDGE('',*,*,#124,.T.);
#166=ORIENTED_EDGE('',*,*,#135,.F.);
#167=ORIENTED_EDGE('',*,*,#136,.F.);
#168=ORIENTED_EDGE('',*,*,#129,.F.);
#169=ORIENTED_EDGE('',*,*,#132,.F.);
#170=ORIENTED_EDGE('',*,*,#126,.T.);
#171=ORIENTED_EDGE('',*,*,#137,.F.);
#172=ORIENTED_EDGE('',*,*,#138,.F.);
#173=ORIENTED_EDGE('',*,*,#134,.F.);
#174=ORIENTED_EDGE('',*,*,#138,.T.);
#175=ORIENTED_EDGE('',*,*,#139,.F.);
#176=ORIENTED_EDGE('',*,*,#135,.T.);
#177=ORIENTED_EDGE('',*,*,#131,.F.);
#178=ORIENTED_EDGE('',*,*,#139,.T.);
#179=ORIENTED_EDGE('',*,*,#137,.T.);
#180=ORIENTED_EDGE('',*,*,#125,.T.);
#181=ORIENTED_EDGE('',*,*,#140,.F.);
#182=ORIENTED_EDGE('',*,*,#130,.T.);
#183=ORIENTED_EDGE('',*,*,#136,.T.);
#184=ORIENTED_EDGE('',*,*,#123,.T.);
#185=ORIENTED_EDGE('',*,*,#133,.T.);
#186=ORIENTED_EDGE('',*,*,#121,.T.);
#187=ORIENTED_EDGE('',*,*,#140,.T.);
#188=ORIENTED_EDGE('',*,*,#119,.T.);
#189=CONICAL_SURFACE('',#211,2.75,45.0000000000001);
#190=ADVANCED_FACE('',(#60,#55),#189,.T.);
#191=ADVANCED_FACE('',(#61,#56),#52,.T.);
#192=ADVANCED_FACE('',(#62),#43,.T.);
#193=ADVANCED_FACE('',(#63,#57),#53,.F.);
#194=ADVANCED_FACE('',(#64),#44,.T.);
#195=ADVANCED_FACE('',(#65),#45,.T.);
#196=ADVANCED_FACE('',(#66,#58),#46,.F.);
#197=ADVANCED_FACE('',(#67),#47,.T.);
#198=ADVANCED_FACE('',(#68),#48,.T.);
#199=ADVANCED_FACE('',(#69),#54,.T.);
#200=ADVANCED_FACE('',(#70,#59),#49,.T.);
#201=ADVANCED_FACE('',(#71),#50,.F.);
#202=ADVANCED_FACE('',(#72),#51,.F.);
#203=CLOSED_SHELL('',(#190,#191,#192,#193,#194,#195,#196,#197,#198,#199,
#200,#201,#202));
#204=DATE_TIME_ROLE('creation_date');
#205=APPLIED_DATE_AND_TIME_ASSIGNMENT(#206,#204,(#364));
#206=DATE_AND_TIME(#207,#208);
#207=CALENDAR_DATE(2021,15,2);
#208=LOCAL_TIME(12,1,40.,#209);
#209=COORDINATED_UNIVERSAL_TIME_OFFSET(0,0,.BEHIND.);
#210=AXIS2_PLACEMENT_3D('placement',#296,#234,#235);
#211=AXIS2_PLACEMENT_3D('',#297,#236,#237);
#212=AXIS2_PLACEMENT_3D('',#299,#238,#239);
#213=AXIS2_PLACEMENT_3D('',#301,#240,#241);
#214=AXIS2_PLACEMENT_3D('',#302,#242,#243);
#215=AXIS2_PLACEMENT_3D('',#305,#244,#245);
#216=AXIS2_PLACEMENT_3D('',#307,#246,#247);
#217=AXIS2_PLACEMENT_3D('',#309,#248,#249);
#218=AXIS2_PLACEMENT_3D('',#310,#250,#251);
#219=AXIS2_PLACEMENT_3D('',#311,#252,#253);
#220=AXIS2_PLACEMENT_3D('',#312,#254,#255);
#221=AXIS2_PLACEMENT_3D('',#314,#256,#257);
#222=AXIS2_PLACEMENT_3D('',#316,#258,#259);
#223=AXIS2_PLACEMENT_3D('',#317,#260,#261);
#224=AXIS2_PLACEMENT_3D('',#323,#265,#266);
#225=AXIS2_PLACEMENT_3D('',#329,#270,#271);
#226=AXIS2_PLACEMENT_3D('',#332,#272,#273);
#227=AXIS2_PLACEMENT_3D('',#336,#277,#278);
#228=AXIS2_PLACEMENT_3D('',#340,#281,#282);
#229=AXIS2_PLACEMENT_3D('',#344,#285,#286);
#230=AXIS2_PLACEMENT_3D('',#345,#287,#288);
#231=AXIS2_PLACEMENT_3D('',#346,#289,#290);
#232=AXIS2_PLACEMENT_3D('',#348,#292,#293);
#233=AXIS2_PLACEMENT_3D('',#349,#294,#295);
#234=DIRECTION('axis',(0.,0.,1.));
#235=DIRECTION('refdir',(1.,0.,0.));
#236=DIRECTION('center_axis',(0.,0.,-1.));
#237=DIRECTION('ref_axis',(-1.,0.,0.));
#238=DIRECTION('center_axis',(0.,0.,1.));
#239=DIRECTION('ref_axis',(-1.,0.,0.));
#240=DIRECTION('center_axis',(0.,0.,-1.));
#241=DIRECTION('ref_axis',(-1.,0.,0.));
#242=DIRECTION('center_axis',(0.,0.,1.));
#243=DIRECTION('ref_axis',(-1.,0.,0.));
#244=DIRECTION('center_axis',(0.,0.,-1.));
#245=DIRECTION('ref_axis',(-1.,0.,0.));
#246=DIRECTION('center_axis',(0.,0.,-1.));
#247=DIRECTION('ref_axis',(-1.,0.,0.));
#248=DIRECTION('center_axis',(0.,0.,-1.));
#249=DIRECTION('ref_axis',(-1.,0.,0.));
#250=DIRECTION('center_axis',(0.,0.,-1.));
#251=DIRECTION('ref_axis',(-1.,0.,0.));
#252=DIRECTION('center_axis',(0.,0.,1.));
#253=DIRECTION('ref_axis',(1.,0.,0.));
#254=DIRECTION('center_axis',(-1.,0.,0.));
#255=DIRECTION('ref_axis',(0.,0.,1.));
#256=DIRECTION('center_axis',(-1.,0.,0.));
#257=DIRECTION('ref_axis',(0.,0.,1.));
#258=DIRECTION('center_axis',(1.,0.,0.));
#259=DIRECTION('ref_axis',(0.,0.,1.));
#260=DIRECTION('center_axis',(0.,0.,1.));
#261=DIRECTION('ref_axis',(0.,-1.,0.));
#262=DIRECTION('',(0.,-1.,0.));
#263=DIRECTION('',(1.,0.,0.));
#264=DIRECTION('',(0.,1.,0.));
#265=DIRECTION('center_axis',(0.,0.,1.));
#266=DIRECTION('ref_axis',(0.,-1.,0.));
#267=DIRECTION('',(0.,1.,0.));
#268=DIRECTION('',(1.,0.,0.));
#269=DIRECTION('',(0.,-1.,0.));
#270=DIRECTION('center_axis',(1.,0.,0.));
#271=DIRECTION('ref_axis',(0.,0.,-1.));
#272=DIRECTION('center_axis',(-1.,0.,0.));
#273=DIRECTION('ref_axis',(0.,-0.917135749778337,0.398574982253689));
#274=DIRECTION('',(0.,0.398574982253689,0.917135749778337));
#275=DIRECTION('',(0.,-1.,0.));
#276=DIRECTION('',(0.,0.398574982253689,-0.917135749778337));
#277=DIRECTION('center_axis',(0.,-0.917135749778337,0.398574982253689));
#278=DIRECTION('ref_axis',(0.,-0.398574982253689,-0.917135749778337));
#279=DIRECTION('',(-1.,0.,0.));
#280=DIRECTION('',(0.,-0.398574982253689,-0.917135749778337));
#281=DIRECTION('center_axis',(0.,0.917135749778337,0.398574982253689));
#282=DIRECTION('ref_axis',(0.,-0.398574982253689,0.917135749778337));
#283=DIRECTION('',(0.,-0.398574982253689,0.917135749778337));
#284=DIRECTION('',(1.,0.,0.));
#285=DIRECTION('center_axis',(1.,0.,0.));
#286=DIRECTION('ref_axis',(0.,-0.917135749778337,0.398574982253689));
#287=DIRECTION('center_axis',(1.,0.,0.));
#288=DIRECTION('ref_axis',(0.,-0.917135749778337,0.398574982253689));
#289=DIRECTION('center_axis',(1.,0.,0.));
#290=DIRECTION('ref_axis',(0.,0.,-1.));
#291=DIRECTION('',(0.,1.,0.));
#292=DIRECTION('center_axis',(0.,0.,1.));
#293=DIRECTION('ref_axis',(1.,0.,0.));
#294=DIRECTION('center_axis',(0.,0.,1.));
#295=DIRECTION('ref_axis',(1.,0.,0.));
#296=CARTESIAN_POINT('',(0.,0.,0.));
#297=CARTESIAN_POINT('Origin',(0.,0.,39.75));
#298=CARTESIAN_POINT('',(3.,3.67394039744206E-16,39.5));
#299=CARTESIAN_POINT('Origin',(0.,0.,39.5));
#300=CARTESIAN_POINT('',(2.5,-3.06161699786838E-16,40.));
#301=CARTESIAN_POINT('Origin',(0.,0.,40.));
#302=CARTESIAN_POINT('Origin',(0.,0.,0.));
#303=CARTESIAN_POINT('',(2.,2.23606797749979,0.));
#304=CARTESIAN_POINT('',(2.,-2.23606797749979,0.));
#305=CARTESIAN_POINT('Origin',(0.,0.,0.));
#306=CARTESIAN_POINT('',(-2.,2.23606797749979,0.));
#307=CARTESIAN_POINT('Origin',(0.,0.,0.));
#308=CARTESIAN_POINT('',(-2.,-2.23606797749979,0.));
#309=CARTESIAN_POINT('Origin',(0.,0.,0.));
#310=CARTESIAN_POINT('Origin',(0.,0.,0.));
#311=CARTESIAN_POINT('Origin',(-3.39011454596783E-16,7.70988211545247E-17,
40.));
#312=CARTESIAN_POINT('Origin',(2.,0.,-7.));
#313=CARTESIAN_POINT('',(2.,-3.18408167778312E-16,-9.6));
#314=CARTESIAN_POINT('Origin',(2.,0.,-7.));
#315=CARTESIAN_POINT('',(-2.,0.,-4.4));
#316=CARTESIAN_POINT('Origin',(-2.,0.,-7.));
#317=CARTESIAN_POINT('Origin',(0.,3.5,0.));
#318=CARTESIAN_POINT('',(2.,3.5,0.));
#319=CARTESIAN_POINT('',(2.,3.5,0.));
#320=CARTESIAN_POINT('',(-2.,3.5,0.));
#321=CARTESIAN_POINT('',(0.,3.5,0.));
#322=CARTESIAN_POINT('',(-2.,3.5,0.));
#323=CARTESIAN_POINT('Origin',(0.,3.5,0.));
#324=CARTESIAN_POINT('',(-2.,-3.5,0.));
#325=CARTESIAN_POINT('',(-2.,3.5,0.));
#326=CARTESIAN_POINT('',(2.,-3.5,0.));
#327=CARTESIAN_POINT('',(0.,-3.5,0.));
#328=CARTESIAN_POINT('',(2.,3.5,0.));
#329=CARTESIAN_POINT('Origin',(-2.,-7.16237892371697E-16,-5.66197062653281));
#330=CARTESIAN_POINT('',(-2.,5.50281449867002,-4.60855010647787));
#331=CARTESIAN_POINT('',(-2.,-5.50281449867002,-4.60855010647787));
#332=CARTESIAN_POINT('Origin',(-2.,0.,-7.));
#333=CARTESIAN_POINT('',(-2.,-3.5,0.));
#334=CARTESIAN_POINT('',(-2.,-3.19569535608586E-16,0.));
#335=CARTESIAN_POINT('',(-2.,5.50281449867002,-4.60855010647787));
#336=CARTESIAN_POINT('Origin',(0.,-3.5,0.));
#337=CARTESIAN_POINT('',(2.,-5.50281449867002,-4.60855010647787));
#338=CARTESIAN_POINT('',(0.,-5.50281449867002,-4.60855010647787));
#339=CARTESIAN_POINT('',(2.,-3.5,0.));
#340=CARTESIAN_POINT('Origin',(0.,5.50281449867002,-4.60855010647787));
#341=CARTESIAN_POINT('',(2.,5.50281449867002,-4.60855010647787));
#342=CARTESIAN_POINT('',(2.,5.50281449867002,-4.60855010647787));
#343=CARTESIAN_POINT('',(0.,5.50281449867002,-4.60855010647787));
#344=CARTESIAN_POINT('Origin',(0.,0.,-7.));
#345=CARTESIAN_POINT('Origin',(2.,0.,-7.));
#346=CARTESIAN_POINT('Origin',(2.,-7.16237892371697E-16,-5.66197062653281));
#347=CARTESIAN_POINT('',(2.,-3.19569535608586E-16,0.));
#348=CARTESIAN_POINT('Origin',(-3.39011454596783E-16,7.70988211545247E-17,
0.));
#349=CARTESIAN_POINT('Origin',(-3.39011454596783E-16,7.70988211545247E-17,
0.));
#350=UNCERTAINTY_MEASURE_WITH_UNIT(LENGTH_MEASURE(0.01),#354,
'DISTANCE_ACCURACY_VALUE',
'Maximum model space distance between geometric entities at asserted c
onnectivities');
#351=UNCERTAINTY_MEASURE_WITH_UNIT(LENGTH_MEASURE(1.E-6),#354,
'DISTANCE_ACCURACY_VALUE',
'Maximum model space distance between geometric entities at asserted c
onnectivities');
#352=(
GEOMETRIC_REPRESENTATION_CONTEXT(3)
GLOBAL_UNCERTAINTY_ASSIGNED_CONTEXT((#350))
GLOBAL_UNIT_ASSIGNED_CONTEXT((#354,#357,#355))
REPRESENTATION_CONTEXT('','3D')
);
#353=(
GEOMETRIC_REPRESENTATION_CONTEXT(3)
GLOBAL_UNCERTAINTY_ASSIGNED_CONTEXT((#351))
GLOBAL_UNIT_ASSIGNED_CONTEXT((#354,#357,#355))
REPRESENTATION_CONTEXT('','3D')
);
#354=(
LENGTH_UNIT()
NAMED_UNIT(*)
SI_UNIT(.MILLI.,.METRE.)
);
#355=(
NAMED_UNIT(*)
SI_UNIT($,.STERADIAN.)
SOLID_ANGLE_UNIT()
);
#356=DIMENSIONAL_EXPONENTS(0.,0.,0.,0.,0.,0.,0.);
#357=(
CONVERSION_BASED_UNIT('degree',#359)
NAMED_UNIT(#356)
PLANE_ANGLE_UNIT()
);
#358=(
NAMED_UNIT(*)
PLANE_ANGLE_UNIT()
SI_UNIT($,.RADIAN.)
);
#359=PLANE_ANGLE_MEASURE_WITH_UNIT(PLANE_ANGLE_MEASURE(0.01745329252),#358);
#360=SHAPE_DEFINITION_REPRESENTATION(#361,#362);
#361=PRODUCT_DEFINITION_SHAPE('',$,#364);
#362=SHAPE_REPRESENTATION('',(#210),#352);
#363=PRODUCT_DEFINITION_CONTEXT('part definition',#368,'design');
#364=PRODUCT_DEFINITION('chariot_reglage_angulaire_tigefiletee',
'chariot_reglage_angulaire_tigefiletee',#365,#363);
#365=PRODUCT_DEFINITION_FORMATION('',$,#370);
#366=PRODUCT_RELATED_PRODUCT_CATEGORY(
'chariot_reglage_angulaire_tigefiletee',
'chariot_reglage_angulaire_tigefiletee',(#370));
#367=APPLICATION_PROTOCOL_DEFINITION('international standard',
'automotive_design',2009,#368);
#368=APPLICATION_CONTEXT(
'Core Data for Automotive Mechanical Design Process');
#369=PRODUCT_CONTEXT('part definition',#368,'mechanical');
#370=PRODUCT('chariot_reglage_angulaire_tigefiletee',
'chariot_reglage_angulaire_tigefiletee',$,(#369));
#371=PRESENTATION_STYLE_ASSIGNMENT((#372));
#372=SURFACE_STYLE_USAGE(.BOTH.,#373);
#373=SURFACE_SIDE_STYLE('',(#374));
#374=SURFACE_STYLE_FILL_AREA(#375);
#375=FILL_AREA_STYLE('',(#376));
#376=FILL_AREA_STYLE_COLOUR('',#377);
#377=COLOUR_RGB('',0.745098039215686,0.737254901960784,0.729411764705882);
ENDSEC;
END-ISO-10303-21;
