ISO-10303-21;
HEADER;
/* Generated by software containing ST-Developer
 * from STEP Tools, Inc. (www.steptools.com) 
 */

FILE_DESCRIPTION(
/* description */ (''),
/* implementation_level */ '2;1');

FILE_NAME(
/* name */ 'E:\\stephane_larhant\\step\\chariot_cliquet_vism8.stp',
/* time_stamp */ '2021-03-29T18:22:07+02:00',
/* author */ ('Utilisateur'),
/* organization */ (''),
/* preprocessor_version */ 'ST-DEVELOPER v16.5',
/* originating_system */ 'Autodesk Inventor 2017',
/* authorisation */ '');

FILE_SCHEMA (('AUTOMOTIVE_DESIGN { 1 0 10303 214 3 1 1 }','AP242_MANAGED_MODEL_BASED_3D_ENGINEERING_MIM_LF { 1 0 10303 442 1 1 4 }'));
ENDSEC;

DATA;
#10=MECHANICAL_DESIGN_GEOMETRIC_PRESENTATION_REPRESENTATION('',(#13),#235);
#11=SHAPE_REPRESENTATION_RELATIONSHIP('SRR','None',#244,#12);
#12=ADVANCED_BREP_SHAPE_REPRESENTATION('',(#14),#234);
#13=STYLED_ITEM('',(#253),#14);
#14=MANIFOLD_SOLID_BREP('Solide1',#127);
#15=PLANE('',#140);
#16=PLANE('',#144);
#17=PLANE('',#145);
#18=PLANE('',#150);
#19=PLANE('',#155);
#20=CYLINDRICAL_SURFACE('',#138,2.5);
#21=CYLINDRICAL_SURFACE('',#141,3.);
#22=CYLINDRICAL_SURFACE('',#148,5.);
#23=CYLINDRICAL_SURFACE('',#154,4.);
#24=FACE_BOUND('',#45,.T.);
#25=FACE_BOUND('',#47,.T.);
#26=FACE_BOUND('',#50,.T.);
#27=FACE_BOUND('',#52,.T.);
#28=FACE_BOUND('',#54,.T.);
#29=FACE_BOUND('',#56,.T.);
#30=FACE_BOUND('',#58,.T.);
#31=FACE_BOUND('',#60,.T.);
#32=FACE_BOUND('',#62,.T.);
#33=FACE_OUTER_BOUND('',#44,.T.);
#34=FACE_OUTER_BOUND('',#46,.T.);
#35=FACE_OUTER_BOUND('',#48,.T.);
#36=FACE_OUTER_BOUND('',#49,.T.);
#37=FACE_OUTER_BOUND('',#51,.T.);
#38=FACE_OUTER_BOUND('',#53,.T.);
#39=FACE_OUTER_BOUND('',#55,.T.);
#40=FACE_OUTER_BOUND('',#57,.T.);
#41=FACE_OUTER_BOUND('',#59,.T.);
#42=FACE_OUTER_BOUND('',#61,.T.);
#43=FACE_OUTER_BOUND('',#63,.T.);
#44=EDGE_LOOP('',(#94));
#45=EDGE_LOOP('',(#95));
#46=EDGE_LOOP('',(#96));
#47=EDGE_LOOP('',(#97));
#48=EDGE_LOOP('',(#98));
#49=EDGE_LOOP('',(#99));
#50=EDGE_LOOP('',(#100));
#51=EDGE_LOOP('',(#101));
#52=EDGE_LOOP('',(#102));
#53=EDGE_LOOP('',(#103));
#54=EDGE_LOOP('',(#104));
#55=EDGE_LOOP('',(#105));
#56=EDGE_LOOP('',(#106));
#57=EDGE_LOOP('',(#107));
#58=EDGE_LOOP('',(#108));
#59=EDGE_LOOP('',(#109));
#60=EDGE_LOOP('',(#110));
#61=EDGE_LOOP('',(#111));
#62=EDGE_LOOP('',(#112));
#63=EDGE_LOOP('',(#113));
#64=CIRCLE('',#136,2.5);
#65=CIRCLE('',#137,2.);
#66=CIRCLE('',#139,2.5);
#67=CIRCLE('',#142,3.);
#68=CIRCLE('',#143,3.);
#69=CIRCLE('',#146,5.);
#70=CIRCLE('',#147,4.);
#71=CIRCLE('',#149,5.);
#72=CIRCLE('',#152,4.);
#73=CIRCLE('',#153,3.5);
#74=VERTEX_POINT('',#202);
#75=VERTEX_POINT('',#204);
#76=VERTEX_POINT('',#207);
#77=VERTEX_POINT('',#211);
#78=VERTEX_POINT('',#213);
#79=VERTEX_POINT('',#217);
#80=VERTEX_POINT('',#219);
#81=VERTEX_POINT('',#222);
#82=VERTEX_POINT('',#226);
#83=VERTEX_POINT('',#228);
#84=EDGE_CURVE('',#74,#74,#64,.T.);
#85=EDGE_CURVE('',#75,#75,#65,.T.);
#86=EDGE_CURVE('',#76,#76,#66,.T.);
#87=EDGE_CURVE('',#77,#77,#67,.T.);
#88=EDGE_CURVE('',#78,#78,#68,.T.);
#89=EDGE_CURVE('',#79,#79,#69,.T.);
#90=EDGE_CURVE('',#80,#80,#70,.T.);
#91=EDGE_CURVE('',#81,#81,#71,.T.);
#92=EDGE_CURVE('',#82,#82,#72,.T.);
#93=EDGE_CURVE('',#83,#83,#73,.T.);
#94=ORIENTED_EDGE('',*,*,#84,.T.);
#95=ORIENTED_EDGE('',*,*,#85,.T.);
#96=ORIENTED_EDGE('',*,*,#86,.F.);
#97=ORIENTED_EDGE('',*,*,#84,.F.);
#98=ORIENTED_EDGE('',*,*,#85,.F.);
#99=ORIENTED_EDGE('',*,*,#87,.F.);
#100=ORIENTED_EDGE('',*,*,#88,.F.);
#101=ORIENTED_EDGE('',*,*,#87,.T.);
#102=ORIENTED_EDGE('',*,*,#86,.T.);
#103=ORIENTED_EDGE('',*,*,#89,.T.);
#104=ORIENTED_EDGE('',*,*,#90,.T.);
#105=ORIENTED_EDGE('',*,*,#91,.F.);
#106=ORIENTED_EDGE('',*,*,#89,.F.);
#107=ORIENTED_EDGE('',*,*,#91,.T.);
#108=ORIENTED_EDGE('',*,*,#88,.T.);
#109=ORIENTED_EDGE('',*,*,#92,.T.);
#110=ORIENTED_EDGE('',*,*,#93,.T.);
#111=ORIENTED_EDGE('',*,*,#90,.F.);
#112=ORIENTED_EDGE('',*,*,#92,.F.);
#113=ORIENTED_EDGE('',*,*,#93,.F.);
#114=CONICAL_SURFACE('',#135,2.25,45.0000000000001);
#115=CONICAL_SURFACE('',#151,3.75,45.0000000000001);
#116=ADVANCED_FACE('',(#33,#24),#114,.T.);
#117=ADVANCED_FACE('',(#34,#25),#20,.T.);
#118=ADVANCED_FACE('',(#35),#15,.F.);
#119=ADVANCED_FACE('',(#36,#26),#21,.T.);
#120=ADVANCED_FACE('',(#37,#27),#16,.F.);
#121=ADVANCED_FACE('',(#38,#28),#17,.T.);
#122=ADVANCED_FACE('',(#39,#29),#22,.T.);
#123=ADVANCED_FACE('',(#40,#30),#18,.F.);
#124=ADVANCED_FACE('',(#41,#31),#115,.T.);
#125=ADVANCED_FACE('',(#42,#32),#23,.T.);
#126=ADVANCED_FACE('',(#43),#19,.T.);
#127=CLOSED_SHELL('',(#116,#117,#118,#119,#120,#121,#122,#123,#124,#125,
#126));
#128=DATE_TIME_ROLE('creation_date');
#129=APPLIED_DATE_AND_TIME_ASSIGNMENT(#130,#128,(#246));
#130=DATE_AND_TIME(#131,#132);
#131=CALENDAR_DATE(2021,10,2);
#132=LOCAL_TIME(18,31,34.,#133);
#133=COORDINATED_UNIVERSAL_TIME_OFFSET(0,0,.BEHIND.);
#134=AXIS2_PLACEMENT_3D('placement',#200,#156,#157);
#135=AXIS2_PLACEMENT_3D('',#201,#158,#159);
#136=AXIS2_PLACEMENT_3D('',#203,#160,#161);
#137=AXIS2_PLACEMENT_3D('',#205,#162,#163);
#138=AXIS2_PLACEMENT_3D('',#206,#164,#165);
#139=AXIS2_PLACEMENT_3D('',#208,#166,#167);
#140=AXIS2_PLACEMENT_3D('',#209,#168,#169);
#141=AXIS2_PLACEMENT_3D('',#210,#170,#171);
#142=AXIS2_PLACEMENT_3D('',#212,#172,#173);
#143=AXIS2_PLACEMENT_3D('',#214,#174,#175);
#144=AXIS2_PLACEMENT_3D('',#215,#176,#177);
#145=AXIS2_PLACEMENT_3D('',#216,#178,#179);
#146=AXIS2_PLACEMENT_3D('',#218,#180,#181);
#147=AXIS2_PLACEMENT_3D('',#220,#182,#183);
#148=AXIS2_PLACEMENT_3D('',#221,#184,#185);
#149=AXIS2_PLACEMENT_3D('',#223,#186,#187);
#150=AXIS2_PLACEMENT_3D('',#224,#188,#189);
#151=AXIS2_PLACEMENT_3D('',#225,#190,#191);
#152=AXIS2_PLACEMENT_3D('',#227,#192,#193);
#153=AXIS2_PLACEMENT_3D('',#229,#194,#195);
#154=AXIS2_PLACEMENT_3D('',#230,#196,#197);
#155=AXIS2_PLACEMENT_3D('',#231,#198,#199);
#156=DIRECTION('axis',(0.,0.,1.));
#157=DIRECTION('refdir',(1.,0.,0.));
#158=DIRECTION('center_axis',(0.,0.,1.));
#159=DIRECTION('ref_axis',(1.,0.,0.));
#160=DIRECTION('center_axis',(0.,0.,-1.));
#161=DIRECTION('ref_axis',(1.,0.,0.));
#162=DIRECTION('center_axis',(0.,0.,1.));
#163=DIRECTION('ref_axis',(1.,0.,0.));
#164=DIRECTION('center_axis',(0.,0.,-1.));
#165=DIRECTION('ref_axis',(1.,0.,0.));
#166=DIRECTION('center_axis',(0.,0.,1.));
#167=DIRECTION('ref_axis',(1.,0.,0.));
#168=DIRECTION('center_axis',(0.,0.,1.));
#169=DIRECTION('ref_axis',(1.,0.,0.));
#170=DIRECTION('center_axis',(0.,0.,-1.));
#171=DIRECTION('ref_axis',(1.,0.,0.));
#172=DIRECTION('center_axis',(0.,0.,-1.));
#173=DIRECTION('ref_axis',(1.,0.,0.));
#174=DIRECTION('center_axis',(0.,0.,1.));
#175=DIRECTION('ref_axis',(1.,0.,0.));
#176=DIRECTION('center_axis',(0.,0.,1.));
#177=DIRECTION('ref_axis',(1.,0.,0.));
#178=DIRECTION('center_axis',(0.,0.,1.));
#179=DIRECTION('ref_axis',(1.,0.,0.));
#180=DIRECTION('center_axis',(0.,0.,1.));
#181=DIRECTION('ref_axis',(1.,0.,0.));
#182=DIRECTION('center_axis',(0.,0.,-1.));
#183=DIRECTION('ref_axis',(-1.,0.,0.));
#184=DIRECTION('center_axis',(0.,0.,-1.));
#185=DIRECTION('ref_axis',(1.,0.,0.));
#186=DIRECTION('center_axis',(0.,0.,-1.));
#187=DIRECTION('ref_axis',(1.,0.,0.));
#188=DIRECTION('center_axis',(0.,0.,1.));
#189=DIRECTION('ref_axis',(1.,0.,0.));
#190=DIRECTION('center_axis',(0.,0.,-1.));
#191=DIRECTION('ref_axis',(-1.,0.,0.));
#192=DIRECTION('center_axis',(0.,0.,1.));
#193=DIRECTION('ref_axis',(-1.,0.,0.));
#194=DIRECTION('center_axis',(0.,0.,-1.));
#195=DIRECTION('ref_axis',(-1.,0.,0.));
#196=DIRECTION('center_axis',(0.,0.,1.));
#197=DIRECTION('ref_axis',(-1.,0.,0.));
#198=DIRECTION('center_axis',(0.,0.,1.));
#199=DIRECTION('ref_axis',(1.,0.,0.));
#200=CARTESIAN_POINT('',(0.,0.,0.));
#201=CARTESIAN_POINT('Origin',(0.,0.,-35.75));
#202=CARTESIAN_POINT('',(-2.5,3.06161699786838E-16,-35.5));
#203=CARTESIAN_POINT('Origin',(0.,0.,-35.5));
#204=CARTESIAN_POINT('',(-2.,-2.44929359829471E-16,-36.));
#205=CARTESIAN_POINT('Origin',(0.,0.,-36.));
#206=CARTESIAN_POINT('Origin',(0.,0.,-19.));
#207=CARTESIAN_POINT('',(-2.5,3.06161699786838E-16,-19.));
#208=CARTESIAN_POINT('Origin',(0.,0.,-19.));
#209=CARTESIAN_POINT('Origin',(1.18032060367666E-16,0.,-36.));
#210=CARTESIAN_POINT('Origin',(0.,0.,-12.));
#211=CARTESIAN_POINT('',(-3.,3.67394039744206E-16,-19.));
#212=CARTESIAN_POINT('Origin',(0.,0.,-19.));
#213=CARTESIAN_POINT('',(-3.,3.67394039744206E-16,-12.));
#214=CARTESIAN_POINT('Origin',(0.,0.,-12.));
#215=CARTESIAN_POINT('Origin',(1.84813812287733E-16,0.,-19.));
#216=CARTESIAN_POINT('Origin',(2.36064120735332E-16,0.,0.));
#217=CARTESIAN_POINT('',(-5.,6.12323399573677E-16,0.));
#218=CARTESIAN_POINT('Origin',(0.,0.,0.));
#219=CARTESIAN_POINT('',(4.,4.89858719658941E-16,0.));
#220=CARTESIAN_POINT('Origin',(0.,0.,0.));
#221=CARTESIAN_POINT('Origin',(0.,0.,0.));
#222=CARTESIAN_POINT('',(-5.,6.12323399573677E-16,-12.));
#223=CARTESIAN_POINT('Origin',(0.,0.,-12.));
#224=CARTESIAN_POINT('Origin',(2.36064120735332E-16,0.,-12.));
#225=CARTESIAN_POINT('Origin',(0.,0.,31.75));
#226=CARTESIAN_POINT('',(4.,4.89858719658941E-16,31.5));
#227=CARTESIAN_POINT('Origin',(0.,0.,31.5));
#228=CARTESIAN_POINT('',(3.5,-4.28626379701574E-16,32.));
#229=CARTESIAN_POINT('Origin',(0.,0.,32.));
#230=CARTESIAN_POINT('Origin',(0.,0.,0.));
#231=CARTESIAN_POINT('Origin',(-3.8776625516694E-16,-5.78241158658936E-17,
32.));
#232=UNCERTAINTY_MEASURE_WITH_UNIT(LENGTH_MEASURE(0.01),#236,
'DISTANCE_ACCURACY_VALUE',
'Maximum model space distance between geometric entities at asserted c
onnectivities');
#233=UNCERTAINTY_MEASURE_WITH_UNIT(LENGTH_MEASURE(1.E-6),#236,
'DISTANCE_ACCURACY_VALUE',
'Maximum model space distance between geometric entities at asserted c
onnectivities');
#234=(
GEOMETRIC_REPRESENTATION_CONTEXT(3)
GLOBAL_UNCERTAINTY_ASSIGNED_CONTEXT((#232))
GLOBAL_UNIT_ASSIGNED_CONTEXT((#236,#239,#237))
REPRESENTATION_CONTEXT('','3D')
);
#235=(
GEOMETRIC_REPRESENTATION_CONTEXT(3)
GLOBAL_UNCERTAINTY_ASSIGNED_CONTEXT((#233))
GLOBAL_UNIT_ASSIGNED_CONTEXT((#236,#239,#237))
REPRESENTATION_CONTEXT('','3D')
);
#236=(
LENGTH_UNIT()
NAMED_UNIT(*)
SI_UNIT(.MILLI.,.METRE.)
);
#237=(
NAMED_UNIT(*)
SI_UNIT($,.STERADIAN.)
SOLID_ANGLE_UNIT()
);
#238=DIMENSIONAL_EXPONENTS(0.,0.,0.,0.,0.,0.,0.);
#239=(
CONVERSION_BASED_UNIT('degree',#241)
NAMED_UNIT(#238)
PLANE_ANGLE_UNIT()
);
#240=(
NAMED_UNIT(*)
PLANE_ANGLE_UNIT()
SI_UNIT($,.RADIAN.)
);
#241=PLANE_ANGLE_MEASURE_WITH_UNIT(PLANE_ANGLE_MEASURE(0.01745329252),#240);
#242=SHAPE_DEFINITION_REPRESENTATION(#243,#244);
#243=PRODUCT_DEFINITION_SHAPE('',$,#246);
#244=SHAPE_REPRESENTATION('',(#134),#234);
#245=PRODUCT_DEFINITION_CONTEXT('part definition',#250,'design');
#246=PRODUCT_DEFINITION('chariot_cliquet_vism8','chariot_cliquet_vism8',
#247,#245);
#247=PRODUCT_DEFINITION_FORMATION('',$,#252);
#248=PRODUCT_RELATED_PRODUCT_CATEGORY('chariot_cliquet_vism8',
'chariot_cliquet_vism8',(#252));
#249=APPLICATION_PROTOCOL_DEFINITION('international standard',
'automotive_design',2009,#250);
#250=APPLICATION_CONTEXT(
'Core Data for Automotive Mechanical Design Process');
#251=PRODUCT_CONTEXT('part definition',#250,'mechanical');
#252=PRODUCT('chariot_cliquet_vism8','chariot_cliquet_vism8',$,(#251));
#253=PRESENTATION_STYLE_ASSIGNMENT((#254));
#254=SURFACE_STYLE_USAGE(.BOTH.,#255);
#255=SURFACE_SIDE_STYLE('',(#256));
#256=SURFACE_STYLE_FILL_AREA(#257);
#257=FILL_AREA_STYLE('',(#258));
#258=FILL_AREA_STYLE_COLOUR('',#259);
#259=COLOUR_RGB('',0.745098039215686,0.737254901960784,0.729411764705882);
ENDSEC;
END-ISO-10303-21;
