ISO-10303-21;
HEADER;
/* Generated by software containing ST-Developer
 * from STEP Tools, Inc. (www.steptools.com) 
 */

FILE_DESCRIPTION(
/* description */ (''),
/* implementation_level */ '2;1');

FILE_NAME(
/* name */ 'E:\\stephane_larhant\\step\\jfm 2023-15.5.stp',
/* time_stamp */ '2021-03-29T18:24:46+02:00',
/* author */ ('Utilisateur'),
/* organization */ (''),
/* preprocessor_version */ 'ST-DEVELOPER v16.5',
/* originating_system */ 'Autodesk Inventor 2017',
/* authorisation */ '');

FILE_SCHEMA (('AUTOMOTIVE_DESIGN { 1 0 10303 214 3 1 1 }'));
ENDSEC;

DATA;
#10=MECHANICAL_DESIGN_GEOMETRIC_PRESENTATION_REPRESENTATION('',(#13),#249);
#11=SHAPE_REPRESENTATION_RELATIONSHIP('SRR','None',#258,#12);
#12=ADVANCED_BREP_SHAPE_REPRESENTATION('',(#14),#248);
#13=STYLED_ITEM('',(#267),#14);
#14=MANIFOLD_SOLID_BREP('Solide1',#136);
#15=CYLINDRICAL_SURFACE('',#149,9.);
#16=CYLINDRICAL_SURFACE('',#153,10.);
#17=CYLINDRICAL_SURFACE('',#162,13.);
#18=PLANE('',#147);
#19=PLANE('',#157);
#20=PLANE('',#164);
#21=FACE_BOUND('',#44,.T.);
#22=FACE_BOUND('',#46,.T.);
#23=FACE_BOUND('',#48,.T.);
#24=FACE_BOUND('',#50,.T.);
#25=FACE_BOUND('',#52,.T.);
#26=FACE_BOUND('',#54,.T.);
#27=FACE_BOUND('',#56,.T.);
#28=FACE_BOUND('',#58,.T.);
#29=FACE_BOUND('',#60,.T.);
#30=FACE_BOUND('',#62,.T.);
#31=FACE_BOUND('',#64,.T.);
#32=FACE_OUTER_BOUND('',#43,.T.);
#33=FACE_OUTER_BOUND('',#45,.T.);
#34=FACE_OUTER_BOUND('',#47,.T.);
#35=FACE_OUTER_BOUND('',#49,.T.);
#36=FACE_OUTER_BOUND('',#51,.T.);
#37=FACE_OUTER_BOUND('',#53,.T.);
#38=FACE_OUTER_BOUND('',#55,.T.);
#39=FACE_OUTER_BOUND('',#57,.T.);
#40=FACE_OUTER_BOUND('',#59,.T.);
#41=FACE_OUTER_BOUND('',#61,.T.);
#42=FACE_OUTER_BOUND('',#63,.T.);
#43=EDGE_LOOP('',(#98));
#44=EDGE_LOOP('',(#99));
#45=EDGE_LOOP('',(#100));
#46=EDGE_LOOP('',(#101));
#47=EDGE_LOOP('',(#102));
#48=EDGE_LOOP('',(#103));
#49=EDGE_LOOP('',(#104));
#50=EDGE_LOOP('',(#105));
#51=EDGE_LOOP('',(#106));
#52=EDGE_LOOP('',(#107));
#53=EDGE_LOOP('',(#108));
#54=EDGE_LOOP('',(#109));
#55=EDGE_LOOP('',(#110));
#56=EDGE_LOOP('',(#111));
#57=EDGE_LOOP('',(#112));
#58=EDGE_LOOP('',(#113));
#59=EDGE_LOOP('',(#114));
#60=EDGE_LOOP('',(#115));
#61=EDGE_LOOP('',(#116));
#62=EDGE_LOOP('',(#117));
#63=EDGE_LOOP('',(#118));
#64=EDGE_LOOP('',(#119));
#65=CIRCLE('',#145,9.);
#66=CIRCLE('',#146,9.3);
#67=CIRCLE('',#148,9.7);
#68=CIRCLE('',#150,9.);
#69=CIRCLE('',#152,10.);
#70=CIRCLE('',#154,10.);
#71=CIRCLE('',#156,9.3);
#72=CIRCLE('',#158,12.7);
#73=CIRCLE('',#160,12.7);
#74=CIRCLE('',#161,13.);
#75=CIRCLE('',#163,13.);
#76=VERTEX_POINT('',#214);
#77=VERTEX_POINT('',#216);
#78=VERTEX_POINT('',#219);
#79=VERTEX_POINT('',#222);
#80=VERTEX_POINT('',#225);
#81=VERTEX_POINT('',#228);
#82=VERTEX_POINT('',#231);
#83=VERTEX_POINT('',#234);
#84=VERTEX_POINT('',#237);
#85=VERTEX_POINT('',#239);
#86=VERTEX_POINT('',#242);
#87=EDGE_CURVE('',#76,#76,#65,.T.);
#88=EDGE_CURVE('',#77,#77,#66,.T.);
#89=EDGE_CURVE('',#78,#78,#67,.T.);
#90=EDGE_CURVE('',#79,#79,#68,.T.);
#91=EDGE_CURVE('',#80,#80,#69,.T.);
#92=EDGE_CURVE('',#81,#81,#70,.T.);
#93=EDGE_CURVE('',#82,#82,#71,.T.);
#94=EDGE_CURVE('',#83,#83,#72,.T.);
#95=EDGE_CURVE('',#84,#84,#73,.T.);
#96=EDGE_CURVE('',#85,#85,#74,.T.);
#97=EDGE_CURVE('',#86,#86,#75,.T.);
#98=ORIENTED_EDGE('',*,*,#87,.T.);
#99=ORIENTED_EDGE('',*,*,#88,.T.);
#100=ORIENTED_EDGE('',*,*,#89,.F.);
#101=ORIENTED_EDGE('',*,*,#88,.F.);
#102=ORIENTED_EDGE('',*,*,#90,.F.);
#103=ORIENTED_EDGE('',*,*,#87,.F.);
#104=ORIENTED_EDGE('',*,*,#91,.T.);
#105=ORIENTED_EDGE('',*,*,#89,.T.);
#106=ORIENTED_EDGE('',*,*,#92,.T.);
#107=ORIENTED_EDGE('',*,*,#91,.F.);
#108=ORIENTED_EDGE('',*,*,#90,.T.);
#109=ORIENTED_EDGE('',*,*,#93,.T.);
#110=ORIENTED_EDGE('',*,*,#94,.F.);
#111=ORIENTED_EDGE('',*,*,#93,.F.);
#112=ORIENTED_EDGE('',*,*,#95,.T.);
#113=ORIENTED_EDGE('',*,*,#96,.T.);
#114=ORIENTED_EDGE('',*,*,#97,.F.);
#115=ORIENTED_EDGE('',*,*,#96,.F.);
#116=ORIENTED_EDGE('',*,*,#95,.F.);
#117=ORIENTED_EDGE('',*,*,#92,.F.);
#118=ORIENTED_EDGE('',*,*,#97,.T.);
#119=ORIENTED_EDGE('',*,*,#94,.T.);
#120=CONICAL_SURFACE('',#144,9.15,45.);
#121=CONICAL_SURFACE('',#151,9.85,45.);
#122=CONICAL_SURFACE('',#155,9.15,45.);
#123=CONICAL_SURFACE('',#159,12.85,45.);
#124=CONICAL_SURFACE('',#165,12.85,45.);
#125=ADVANCED_FACE('',(#32,#21),#120,.F.);
#126=ADVANCED_FACE('',(#33,#22),#18,.F.);
#127=ADVANCED_FACE('',(#34,#23),#15,.F.);
#128=ADVANCED_FACE('',(#35,#24),#121,.T.);
#129=ADVANCED_FACE('',(#36,#25),#16,.T.);
#130=ADVANCED_FACE('',(#37,#26),#122,.F.);
#131=ADVANCED_FACE('',(#38,#27),#19,.T.);
#132=ADVANCED_FACE('',(#39,#28),#123,.T.);
#133=ADVANCED_FACE('',(#40,#29),#17,.T.);
#134=ADVANCED_FACE('',(#41,#30),#20,.F.);
#135=ADVANCED_FACE('',(#42,#31),#124,.T.);
#136=CLOSED_SHELL('',(#125,#126,#127,#128,#129,#130,#131,#132,#133,#134,
#135));
#137=DATE_TIME_ROLE('creation_date');
#138=APPLIED_DATE_AND_TIME_ASSIGNMENT(#139,#137,(#260));
#139=DATE_AND_TIME(#140,#141);
#140=CALENDAR_DATE(2004,13,5);
#141=LOCAL_TIME(13,0,17.,#142);
#142=COORDINATED_UNIVERSAL_TIME_OFFSET(0,0,.BEHIND.);
#143=AXIS2_PLACEMENT_3D('placement',#212,#166,#167);
#144=AXIS2_PLACEMENT_3D('',#213,#168,#169);
#145=AXIS2_PLACEMENT_3D('',#215,#170,#171);
#146=AXIS2_PLACEMENT_3D('',#217,#172,#173);
#147=AXIS2_PLACEMENT_3D('',#218,#174,#175);
#148=AXIS2_PLACEMENT_3D('',#220,#176,#177);
#149=AXIS2_PLACEMENT_3D('',#221,#178,#179);
#150=AXIS2_PLACEMENT_3D('',#223,#180,#181);
#151=AXIS2_PLACEMENT_3D('',#224,#182,#183);
#152=AXIS2_PLACEMENT_3D('',#226,#184,#185);
#153=AXIS2_PLACEMENT_3D('',#227,#186,#187);
#154=AXIS2_PLACEMENT_3D('',#229,#188,#189);
#155=AXIS2_PLACEMENT_3D('',#230,#190,#191);
#156=AXIS2_PLACEMENT_3D('',#232,#192,#193);
#157=AXIS2_PLACEMENT_3D('',#233,#194,#195);
#158=AXIS2_PLACEMENT_3D('',#235,#196,#197);
#159=AXIS2_PLACEMENT_3D('',#236,#198,#199);
#160=AXIS2_PLACEMENT_3D('',#238,#200,#201);
#161=AXIS2_PLACEMENT_3D('',#240,#202,#203);
#162=AXIS2_PLACEMENT_3D('',#241,#204,#205);
#163=AXIS2_PLACEMENT_3D('',#243,#206,#207);
#164=AXIS2_PLACEMENT_3D('',#244,#208,#209);
#165=AXIS2_PLACEMENT_3D('',#245,#210,#211);
#166=DIRECTION('axis',(0.,0.,1.));
#167=DIRECTION('refdir',(1.,0.,0.));
#168=DIRECTION('center_axis',(0.,0.,1.));
#169=DIRECTION('ref_axis',(-1.,0.,0.));
#170=DIRECTION('center_axis',(0.,0.,-1.));
#171=DIRECTION('ref_axis',(-1.,0.,0.));
#172=DIRECTION('center_axis',(0.,0.,1.));
#173=DIRECTION('ref_axis',(-1.,0.,0.));
#174=DIRECTION('center_axis',(0.,0.,-1.));
#175=DIRECTION('ref_axis',(-1.,0.,0.));
#176=DIRECTION('center_axis',(0.,0.,-1.));
#177=DIRECTION('ref_axis',(-1.,0.,0.));
#178=DIRECTION('center_axis',(0.,0.,-1.));
#179=DIRECTION('ref_axis',(-1.,0.,0.));
#180=DIRECTION('center_axis',(0.,0.,1.));
#181=DIRECTION('ref_axis',(-1.,0.,0.));
#182=DIRECTION('center_axis',(0.,0.,-1.));
#183=DIRECTION('ref_axis',(-1.,0.,0.));
#184=DIRECTION('center_axis',(0.,0.,1.));
#185=DIRECTION('ref_axis',(-1.,0.,0.));
#186=DIRECTION('center_axis',(0.,0.,-1.));
#187=DIRECTION('ref_axis',(-1.,0.,0.));
#188=DIRECTION('center_axis',(0.,0.,1.));
#189=DIRECTION('ref_axis',(-1.,0.,0.));
#190=DIRECTION('center_axis',(0.,0.,-1.));
#191=DIRECTION('ref_axis',(-1.,0.,0.));
#192=DIRECTION('center_axis',(0.,0.,-1.));
#193=DIRECTION('ref_axis',(-1.,0.,0.));
#194=DIRECTION('center_axis',(0.,0.,-1.));
#195=DIRECTION('ref_axis',(-1.,0.,0.));
#196=DIRECTION('center_axis',(0.,0.,1.));
#197=DIRECTION('ref_axis',(-1.,0.,0.));
#198=DIRECTION('center_axis',(0.,0.,-1.));
#199=DIRECTION('ref_axis',(-1.,0.,0.));
#200=DIRECTION('center_axis',(0.,0.,-1.));
#201=DIRECTION('ref_axis',(-1.,0.,0.));
#202=DIRECTION('center_axis',(0.,0.,1.));
#203=DIRECTION('ref_axis',(-1.,0.,0.));
#204=DIRECTION('center_axis',(0.,0.,1.));
#205=DIRECTION('ref_axis',(-1.,0.,0.));
#206=DIRECTION('center_axis',(0.,0.,-1.));
#207=DIRECTION('ref_axis',(-1.,0.,0.));
#208=DIRECTION('center_axis',(0.,0.,-1.));
#209=DIRECTION('ref_axis',(-1.,0.,0.));
#210=DIRECTION('center_axis',(0.,0.,1.));
#211=DIRECTION('ref_axis',(-1.,0.,0.));
#212=CARTESIAN_POINT('',(0.,0.,0.));
#213=CARTESIAN_POINT('Origin',(0.,0.,14.65));
#214=CARTESIAN_POINT('',(9.,-1.10218211923262E-15,14.5));
#215=CARTESIAN_POINT('Origin',(0.,0.,14.5));
#216=CARTESIAN_POINT('',(9.3,1.13892152320704E-15,14.8));
#217=CARTESIAN_POINT('Origin',(0.,0.,14.8));
#218=CARTESIAN_POINT('Origin',(0.,0.,14.8));
#219=CARTESIAN_POINT('',(9.7,-1.18790739517293E-15,14.8));
#220=CARTESIAN_POINT('Origin',(0.,0.,14.8));
#221=CARTESIAN_POINT('Origin',(0.,0.,14.8));
#222=CARTESIAN_POINT('',(9.,1.10218211923262E-15,0.3));
#223=CARTESIAN_POINT('Origin',(0.,0.,0.3));
#224=CARTESIAN_POINT('Origin',(0.,0.,14.65));
#225=CARTESIAN_POINT('',(10.,1.22464679914735E-15,14.5));
#226=CARTESIAN_POINT('Origin',(0.,0.,14.5));
#227=CARTESIAN_POINT('Origin',(0.,0.,14.8));
#228=CARTESIAN_POINT('',(10.,1.22464679914735E-15,1.));
#229=CARTESIAN_POINT('Origin',(0.,0.,1.));
#230=CARTESIAN_POINT('Origin',(0.,0.,0.15));
#231=CARTESIAN_POINT('',(9.3,-1.13892152320704E-15,0.));
#232=CARTESIAN_POINT('Origin',(0.,0.,0.));
#233=CARTESIAN_POINT('Origin',(0.,0.,0.));
#234=CARTESIAN_POINT('',(12.7,1.55530143491714E-15,0.));
#235=CARTESIAN_POINT('Origin',(0.,0.,0.));
#236=CARTESIAN_POINT('Origin',(0.,0.,0.850000000000001));
#237=CARTESIAN_POINT('',(12.7,-1.55530143491714E-15,1.));
#238=CARTESIAN_POINT('Origin',(0.,0.,1.));
#239=CARTESIAN_POINT('',(13.,1.59204083889156E-15,0.700000000000001));
#240=CARTESIAN_POINT('Origin',(0.,0.,0.700000000000001));
#241=CARTESIAN_POINT('Origin',(0.,0.,0.));
#242=CARTESIAN_POINT('',(13.,-1.59204083889156E-15,0.3));
#243=CARTESIAN_POINT('Origin',(0.,0.,0.3));
#244=CARTESIAN_POINT('Origin',(0.,0.,1.));
#245=CARTESIAN_POINT('Origin',(0.,0.,0.15));
#246=UNCERTAINTY_MEASURE_WITH_UNIT(LENGTH_MEASURE(0.01),#250,
'DISTANCE_ACCURACY_VALUE',
'Maximum model space distance between geometric entities at asserted c
onnectivities');
#247=UNCERTAINTY_MEASURE_WITH_UNIT(LENGTH_MEASURE(1.E-6),#250,
'DISTANCE_ACCURACY_VALUE',
'Maximum model space distance between geometric entities at asserted c
onnectivities');
#248=(
GEOMETRIC_REPRESENTATION_CONTEXT(3)
GLOBAL_UNCERTAINTY_ASSIGNED_CONTEXT((#246))
GLOBAL_UNIT_ASSIGNED_CONTEXT((#250,#253,#251))
REPRESENTATION_CONTEXT('','3D')
);
#249=(
GEOMETRIC_REPRESENTATION_CONTEXT(3)
GLOBAL_UNCERTAINTY_ASSIGNED_CONTEXT((#247))
GLOBAL_UNIT_ASSIGNED_CONTEXT((#250,#253,#251))
REPRESENTATION_CONTEXT('','3D')
);
#250=(
LENGTH_UNIT()
NAMED_UNIT(*)
SI_UNIT(.MILLI.,.METRE.)
);
#251=(
NAMED_UNIT(*)
SI_UNIT($,.STERADIAN.)
SOLID_ANGLE_UNIT()
);
#252=DIMENSIONAL_EXPONENTS(0.,0.,0.,0.,0.,0.,0.);
#253=(
CONVERSION_BASED_UNIT('degree',#255)
NAMED_UNIT(#252)
PLANE_ANGLE_UNIT()
);
#254=(
NAMED_UNIT(*)
PLANE_ANGLE_UNIT()
SI_UNIT($,.RADIAN.)
);
#255=PLANE_ANGLE_MEASURE_WITH_UNIT(PLANE_ANGLE_MEASURE(0.01745329252),#254);
#256=SHAPE_DEFINITION_REPRESENTATION(#257,#258);
#257=PRODUCT_DEFINITION_SHAPE('',$,#260);
#258=SHAPE_REPRESENTATION('',(#143),#248);
#259=PRODUCT_DEFINITION_CONTEXT('part definition',#264,'design');
#260=PRODUCT_DEFINITION('jfm 2023-15.5','jfm 2023-15.5',#261,#259);
#261=PRODUCT_DEFINITION_FORMATION('',$,#266);
#262=PRODUCT_RELATED_PRODUCT_CATEGORY('jfm 2023-15.5','jfm 2023-15.5',(#266));
#263=APPLICATION_PROTOCOL_DEFINITION('international standard',
'automotive_design',2009,#264);
#264=APPLICATION_CONTEXT(
'Core Data for Automotive Mechanical Design Process');
#265=PRODUCT_CONTEXT('part definition',#264,'mechanical');
#266=PRODUCT('jfm 2023-15.5','jfm 2023-15.5',$,(#265));
#267=PRESENTATION_STYLE_ASSIGNMENT((#268));
#268=SURFACE_STYLE_USAGE(.BOTH.,#269);
#269=SURFACE_SIDE_STYLE('',(#270));
#270=SURFACE_STYLE_FILL_AREA(#271);
#271=FILL_AREA_STYLE('',(#272));
#272=FILL_AREA_STYLE_COLOUR('',#273);
#273=COLOUR_RGB('',1.,0.968627450980392,0.725490196078431);
ENDSEC;
END-ISO-10303-21;
