ISO-10303-21;
HEADER;
/* Generated by software containing ST-Developer
 * from STEP Tools, Inc. (www.steptools.com) 
 */

FILE_DESCRIPTION(
/* description */ (''),
/* implementation_level */ '2;1');

FILE_NAME(
/* name */ 'E:\\stephane_larhant\\step\\chassis_cale_carter.stp',
/* time_stamp */ '2021-03-29T18:36:34+02:00',
/* author */ ('Utilisateur'),
/* organization */ (''),
/* preprocessor_version */ 'ST-DEVELOPER v16.5',
/* originating_system */ 'Autodesk Inventor 2017',
/* authorisation */ '');

FILE_SCHEMA (('AUTOMOTIVE_DESIGN { 1 0 10303 214 3 1 1 }'));
ENDSEC;

DATA;
#10=MECHANICAL_DESIGN_GEOMETRIC_PRESENTATION_REPRESENTATION('',(#13),#149);
#11=SHAPE_REPRESENTATION_RELATIONSHIP('SRR','None',#158,#12);
#12=ADVANCED_BREP_SHAPE_REPRESENTATION('',(#14),#148);
#13=STYLED_ITEM('',(#167),#14);
#14=MANIFOLD_SOLID_BREP('Solide1',#81);
#15=CYLINDRICAL_SURFACE('',#92,7.5);
#16=CYLINDRICAL_SURFACE('',#96,3.05);
#17=CYLINDRICAL_SURFACE('',#98,5.);
#18=FACE_BOUND('',#31,.T.);
#19=FACE_BOUND('',#33,.T.);
#20=FACE_BOUND('',#35,.T.);
#21=FACE_BOUND('',#37,.T.);
#22=FACE_BOUND('',#39,.T.);
#23=FACE_BOUND('',#41,.T.);
#24=FACE_OUTER_BOUND('',#30,.T.);
#25=FACE_OUTER_BOUND('',#32,.T.);
#26=FACE_OUTER_BOUND('',#34,.T.);
#27=FACE_OUTER_BOUND('',#36,.T.);
#28=FACE_OUTER_BOUND('',#38,.T.);
#29=FACE_OUTER_BOUND('',#40,.T.);
#30=EDGE_LOOP('',(#60));
#31=EDGE_LOOP('',(#61));
#32=EDGE_LOOP('',(#62));
#33=EDGE_LOOP('',(#63));
#34=EDGE_LOOP('',(#64));
#35=EDGE_LOOP('',(#65));
#36=EDGE_LOOP('',(#66));
#37=EDGE_LOOP('',(#67));
#38=EDGE_LOOP('',(#68));
#39=EDGE_LOOP('',(#69));
#40=EDGE_LOOP('',(#70));
#41=EDGE_LOOP('',(#71));
#42=CIRCLE('',#90,7.5);
#43=CIRCLE('',#91,5.);
#44=CIRCLE('',#93,7.5);
#45=CIRCLE('',#95,3.05);
#46=CIRCLE('',#97,3.05);
#47=CIRCLE('',#99,5.);
#48=VERTEX_POINT('',#129);
#49=VERTEX_POINT('',#131);
#50=VERTEX_POINT('',#134);
#51=VERTEX_POINT('',#137);
#52=VERTEX_POINT('',#140);
#53=VERTEX_POINT('',#143);
#54=EDGE_CURVE('',#48,#48,#42,.T.);
#55=EDGE_CURVE('',#49,#49,#43,.T.);
#56=EDGE_CURVE('',#50,#50,#44,.T.);
#57=EDGE_CURVE('',#51,#51,#45,.T.);
#58=EDGE_CURVE('',#52,#52,#46,.T.);
#59=EDGE_CURVE('',#53,#53,#47,.T.);
#60=ORIENTED_EDGE('',*,*,#54,.T.);
#61=ORIENTED_EDGE('',*,*,#55,.T.);
#62=ORIENTED_EDGE('',*,*,#56,.F.);
#63=ORIENTED_EDGE('',*,*,#54,.F.);
#64=ORIENTED_EDGE('',*,*,#56,.T.);
#65=ORIENTED_EDGE('',*,*,#57,.T.);
#66=ORIENTED_EDGE('',*,*,#57,.F.);
#67=ORIENTED_EDGE('',*,*,#58,.F.);
#68=ORIENTED_EDGE('',*,*,#55,.F.);
#69=ORIENTED_EDGE('',*,*,#59,.F.);
#70=ORIENTED_EDGE('',*,*,#59,.T.);
#71=ORIENTED_EDGE('',*,*,#58,.T.);
#72=PLANE('',#89);
#73=PLANE('',#94);
#74=PLANE('',#100);
#75=ADVANCED_FACE('',(#24,#18),#72,.F.);
#76=ADVANCED_FACE('',(#25,#19),#15,.T.);
#77=ADVANCED_FACE('',(#26,#20),#73,.T.);
#78=ADVANCED_FACE('',(#27,#21),#16,.F.);
#79=ADVANCED_FACE('',(#28,#22),#17,.T.);
#80=ADVANCED_FACE('',(#29,#23),#74,.F.);
#81=CLOSED_SHELL('',(#75,#76,#77,#78,#79,#80));
#82=DATE_TIME_ROLE('creation_date');
#83=APPLIED_DATE_AND_TIME_ASSIGNMENT(#84,#82,(#160));
#84=DATE_AND_TIME(#85,#86);
#85=CALENDAR_DATE(2021,21,2);
#86=LOCAL_TIME(11,52,15.,#87);
#87=COORDINATED_UNIVERSAL_TIME_OFFSET(0,0,.BEHIND.);
#88=AXIS2_PLACEMENT_3D('placement',#127,#101,#102);
#89=AXIS2_PLACEMENT_3D('',#128,#103,#104);
#90=AXIS2_PLACEMENT_3D('',#130,#105,#106);
#91=AXIS2_PLACEMENT_3D('',#132,#107,#108);
#92=AXIS2_PLACEMENT_3D('',#133,#109,#110);
#93=AXIS2_PLACEMENT_3D('',#135,#111,#112);
#94=AXIS2_PLACEMENT_3D('',#136,#113,#114);
#95=AXIS2_PLACEMENT_3D('',#138,#115,#116);
#96=AXIS2_PLACEMENT_3D('',#139,#117,#118);
#97=AXIS2_PLACEMENT_3D('',#141,#119,#120);
#98=AXIS2_PLACEMENT_3D('',#142,#121,#122);
#99=AXIS2_PLACEMENT_3D('',#144,#123,#124);
#100=AXIS2_PLACEMENT_3D('',#145,#125,#126);
#101=DIRECTION('axis',(0.,0.,1.));
#102=DIRECTION('refdir',(1.,0.,0.));
#103=DIRECTION('center_axis',(0.,0.,1.));
#104=DIRECTION('ref_axis',(1.,0.,0.));
#105=DIRECTION('center_axis',(0.,0.,-1.));
#106=DIRECTION('ref_axis',(-1.,0.,0.));
#107=DIRECTION('center_axis',(0.,0.,1.));
#108=DIRECTION('ref_axis',(-1.,0.,0.));
#109=DIRECTION('center_axis',(0.,0.,1.));
#110=DIRECTION('ref_axis',(-1.,0.,0.));
#111=DIRECTION('center_axis',(0.,0.,1.));
#112=DIRECTION('ref_axis',(-1.,0.,0.));
#113=DIRECTION('center_axis',(0.,0.,1.));
#114=DIRECTION('ref_axis',(1.,0.,0.));
#115=DIRECTION('center_axis',(0.,0.,-1.));
#116=DIRECTION('ref_axis',(-1.,0.,0.));
#117=DIRECTION('center_axis',(0.,0.,1.));
#118=DIRECTION('ref_axis',(-1.,0.,0.));
#119=DIRECTION('center_axis',(0.,0.,1.));
#120=DIRECTION('ref_axis',(-1.,0.,0.));
#121=DIRECTION('center_axis',(0.,0.,1.));
#122=DIRECTION('ref_axis',(-1.,0.,0.));
#123=DIRECTION('center_axis',(0.,0.,-1.));
#124=DIRECTION('ref_axis',(-1.,0.,0.));
#125=DIRECTION('center_axis',(0.,0.,1.));
#126=DIRECTION('ref_axis',(1.,0.,0.));
#127=CARTESIAN_POINT('',(0.,0.,0.));
#128=CARTESIAN_POINT('Origin',(-5.69972880335668E-16,-1.2335811384724E-16,
1.2));
#129=CARTESIAN_POINT('',(7.5,9.18485099360515E-16,1.2));
#130=CARTESIAN_POINT('Origin',(0.,0.,1.2));
#131=CARTESIAN_POINT('',(5.,6.12323399573677E-16,1.2));
#132=CARTESIAN_POINT('Origin',(0.,0.,1.2));
#133=CARTESIAN_POINT('Origin',(0.,0.,1.2));
#134=CARTESIAN_POINT('',(7.5,9.18485099360515E-16,2.7));
#135=CARTESIAN_POINT('Origin',(0.,0.,2.7));
#136=CARTESIAN_POINT('Origin',(-5.69972880335668E-16,-1.2335811384724E-16,
2.7));
#137=CARTESIAN_POINT('',(3.05,3.73517273739943E-16,2.7));
#138=CARTESIAN_POINT('Origin',(0.,0.,2.7));
#139=CARTESIAN_POINT('Origin',(0.,0.,0.));
#140=CARTESIAN_POINT('',(3.05,3.73517273739943E-16,0.));
#141=CARTESIAN_POINT('Origin',(0.,0.,0.));
#142=CARTESIAN_POINT('Origin',(0.,0.,0.));
#143=CARTESIAN_POINT('',(5.,6.12323399573677E-16,0.));
#144=CARTESIAN_POINT('Origin',(0.,0.,0.));
#145=CARTESIAN_POINT('Origin',(-2.36064120735332E-16,0.,0.));
#146=UNCERTAINTY_MEASURE_WITH_UNIT(LENGTH_MEASURE(0.01),#150,
'DISTANCE_ACCURACY_VALUE',
'Maximum model space distance between geometric entities at asserted c
onnectivities');
#147=UNCERTAINTY_MEASURE_WITH_UNIT(LENGTH_MEASURE(1.E-6),#150,
'DISTANCE_ACCURACY_VALUE',
'Maximum model space distance between geometric entities at asserted c
onnectivities');
#148=(
GEOMETRIC_REPRESENTATION_CONTEXT(3)
GLOBAL_UNCERTAINTY_ASSIGNED_CONTEXT((#146))
GLOBAL_UNIT_ASSIGNED_CONTEXT((#150,#153,#151))
REPRESENTATION_CONTEXT('','3D')
);
#149=(
GEOMETRIC_REPRESENTATION_CONTEXT(3)
GLOBAL_UNCERTAINTY_ASSIGNED_CONTEXT((#147))
GLOBAL_UNIT_ASSIGNED_CONTEXT((#150,#153,#151))
REPRESENTATION_CONTEXT('','3D')
);
#150=(
LENGTH_UNIT()
NAMED_UNIT(*)
SI_UNIT(.MILLI.,.METRE.)
);
#151=(
NAMED_UNIT(*)
SI_UNIT($,.STERADIAN.)
SOLID_ANGLE_UNIT()
);
#152=DIMENSIONAL_EXPONENTS(0.,0.,0.,0.,0.,0.,0.);
#153=(
CONVERSION_BASED_UNIT('degree',#155)
NAMED_UNIT(#152)
PLANE_ANGLE_UNIT()
);
#154=(
NAMED_UNIT(*)
PLANE_ANGLE_UNIT()
SI_UNIT($,.RADIAN.)
);
#155=PLANE_ANGLE_MEASURE_WITH_UNIT(PLANE_ANGLE_MEASURE(0.01745329252),#154);
#156=SHAPE_DEFINITION_REPRESENTATION(#157,#158);
#157=PRODUCT_DEFINITION_SHAPE('',$,#160);
#158=SHAPE_REPRESENTATION('',(#88),#148);
#159=PRODUCT_DEFINITION_CONTEXT('part definition',#164,'design');
#160=PRODUCT_DEFINITION('chassis_cale_carter','chassis_cale_carter',#161,
#159);
#161=PRODUCT_DEFINITION_FORMATION('',$,#166);
#162=PRODUCT_RELATED_PRODUCT_CATEGORY('chassis_cale_carter',
'chassis_cale_carter',(#166));
#163=APPLICATION_PROTOCOL_DEFINITION('international standard',
'automotive_design',2009,#164);
#164=APPLICATION_CONTEXT(
'Core Data for Automotive Mechanical Design Process');
#165=PRODUCT_CONTEXT('part definition',#164,'mechanical');
#166=PRODUCT('chassis_cale_carter','chassis_cale_carter',$,(#165));
#167=PRESENTATION_STYLE_ASSIGNMENT((#168));
#168=SURFACE_STYLE_USAGE(.BOTH.,#169);
#169=SURFACE_SIDE_STYLE('',(#170));
#170=SURFACE_STYLE_FILL_AREA(#171);
#171=FILL_AREA_STYLE('',(#172));
#172=FILL_AREA_STYLE_COLOUR('',#173);
#173=COLOUR_RGB('',0.745098039215686,0.737254901960784,0.729411764705882);
ENDSEC;
END-ISO-10303-21;
