ISO-10303-21;
HEADER;
/* Generated by software containing ST-Developer
 * from STEP Tools, Inc. (www.steptools.com) 
 */

FILE_DESCRIPTION(
/* description */ (''),
/* implementation_level */ '2;1');

FILE_NAME(
/* name */ 
'C:/Users/Clos des Auges/Desktop/ALPHA/Axe de renvoi v13.step',
/* time_stamp */ '2021-03-29T20:12:49+02:00',
/* author */ (''),
/* organization */ (''),
/* preprocessor_version */ 'ST-DEVELOPER v18.1',
/* originating_system */ 'Autodesk Translation Framework v9.10.0.1330',

/* authorisation */ '');

FILE_SCHEMA (('AUTOMOTIVE_DESIGN { 1 0 10303 214 3 1 1 }'));
ENDSEC;

DATA;
#10=MECHANICAL_DESIGN_GEOMETRIC_PRESENTATION_REPRESENTATION('',(#13),#450);
#11=SHAPE_REPRESENTATION_RELATIONSHIP('SRR','None',#457,#12);
#12=ADVANCED_BREP_SHAPE_REPRESENTATION('',(#14),#449);
#13=STYLED_ITEM('',(#466),#14);
#14=MANIFOLD_SOLID_BREP('Corps1',#248);
#15=FACE_BOUND('',#79,.T.);
#16=FACE_BOUND('',#87,.T.);
#17=FACE_BOUND('',#89,.T.);
#18=FACE_BOUND('',#94,.T.);
#19=PLANE('',#270);
#20=PLANE('',#277);
#21=PLANE('',#282);
#22=PLANE('',#283);
#23=PLANE('',#285);
#24=PLANE('',#290);
#25=PLANE('',#291);
#26=PLANE('',#292);
#27=LINE('',#386,#40);
#28=LINE('',#389,#41);
#29=LINE('',#404,#42);
#30=LINE('',#411,#43);
#31=LINE('',#415,#44);
#32=LINE('',#422,#45);
#33=LINE('',#425,#46);
#34=LINE('',#430,#47);
#35=LINE('',#436,#48);
#36=LINE('',#439,#49);
#37=LINE('',#441,#50);
#38=LINE('',#442,#51);
#39=LINE('',#445,#52);
#40=VECTOR('',#303,10.);
#41=VECTOR('',#306,10.);
#42=VECTOR('',#315,10.);
#43=VECTOR('',#322,1.24);
#44=VECTOR('',#327,1.49);
#45=VECTOR('',#336,1.24);
#46=VECTOR('',#341,1.49);
#47=VECTOR('',#348,10.);
#48=VECTOR('',#353,10.);
#49=VECTOR('',#358,3.5);
#50=VECTOR('',#361,10.);
#51=VECTOR('',#362,10.);
#52=VECTOR('',#367,10.);
#53=CYLINDRICAL_SURFACE('',#265,2.2);
#54=CYLINDRICAL_SURFACE('',#275,1.49);
#55=CYLINDRICAL_SURFACE('',#281,1.49);
#56=CYLINDRICAL_SURFACE('',#288,3.5);
#57=CYLINDRICAL_SURFACE('',#289,2.2);
#58=FACE_OUTER_BOUND('',#75,.T.);
#59=FACE_OUTER_BOUND('',#76,.T.);
#60=FACE_OUTER_BOUND('',#77,.T.);
#61=FACE_OUTER_BOUND('',#78,.T.);
#62=FACE_OUTER_BOUND('',#80,.T.);
#63=FACE_OUTER_BOUND('',#81,.T.);
#64=FACE_OUTER_BOUND('',#82,.T.);
#65=FACE_OUTER_BOUND('',#83,.T.);
#66=FACE_OUTER_BOUND('',#84,.T.);
#67=FACE_OUTER_BOUND('',#85,.T.);
#68=FACE_OUTER_BOUND('',#86,.T.);
#69=FACE_OUTER_BOUND('',#88,.T.);
#70=FACE_OUTER_BOUND('',#90,.T.);
#71=FACE_OUTER_BOUND('',#91,.T.);
#72=FACE_OUTER_BOUND('',#92,.T.);
#73=FACE_OUTER_BOUND('',#93,.T.);
#74=FACE_OUTER_BOUND('',#95,.T.);
#75=EDGE_LOOP('',(#165,#166,#167,#168));
#76=EDGE_LOOP('',(#169,#170,#171,#172));
#77=EDGE_LOOP('',(#173,#174,#175,#176));
#78=EDGE_LOOP('',(#177,#178));
#79=EDGE_LOOP('',(#179));
#80=EDGE_LOOP('',(#180,#181,#182,#183));
#81=EDGE_LOOP('',(#184,#185,#186,#187));
#82=EDGE_LOOP('',(#188));
#83=EDGE_LOOP('',(#189,#190,#191,#192));
#84=EDGE_LOOP('',(#193,#194,#195,#196));
#85=EDGE_LOOP('',(#197));
#86=EDGE_LOOP('',(#198));
#87=EDGE_LOOP('',(#199,#200));
#88=EDGE_LOOP('',(#201));
#89=EDGE_LOOP('',(#202,#203));
#90=EDGE_LOOP('',(#204,#205,#206,#207));
#91=EDGE_LOOP('',(#208,#209,#210,#211));
#92=EDGE_LOOP('',(#212,#213,#214,#215,#216,#217));
#93=EDGE_LOOP('',(#218,#219));
#94=EDGE_LOOP('',(#220));
#95=EDGE_LOOP('',(#221,#222,#223,#224,#225,#226));
#96=CIRCLE('',#263,1.9);
#97=CIRCLE('',#264,2.2);
#98=CIRCLE('',#266,2.2);
#99=CIRCLE('',#268,1.9);
#100=CIRCLE('',#269,2.2);
#101=CIRCLE('',#271,1.49);
#102=CIRCLE('',#273,0.99);
#103=CIRCLE('',#274,1.49);
#104=CIRCLE('',#276,1.49);
#105=CIRCLE('',#279,0.99);
#106=CIRCLE('',#280,1.49);
#107=CIRCLE('',#284,3.5);
#108=CIRCLE('',#286,3.5);
#109=CIRCLE('',#287,2.2);
#110=(
BOUNDED_CURVE()
B_SPLINE_CURVE(2,(#374,#375,#376),.UNSPECIFIED.,.F.,.F.)
B_SPLINE_CURVE_WITH_KNOTS((3,3),(0.636508164438417,0.80918706270955),
 .UNSPECIFIED.)
CURVE()
GEOMETRIC_REPRESENTATION_ITEM()
RATIONAL_B_SPLINE_CURVE((1.14555970466486,1.09252436688738,1.))
REPRESENTATION_ITEM('')
);
#111=(
BOUNDED_CURVE()
B_SPLINE_CURVE(2,(#380,#381,#382),.UNSPECIFIED.,.F.,.F.)
B_SPLINE_CURVE_WITH_KNOTS((3,3),(0.,0.172678898271132),.UNSPECIFIED.)
CURVE()
GEOMETRIC_REPRESENTATION_ITEM()
RATIONAL_B_SPLINE_CURVE((1.,1.09252436688738,1.14555970466486))
REPRESENTATION_ITEM('')
);
#112=(
BOUNDED_CURVE()
B_SPLINE_CURVE(2,(#393,#394,#395),.UNSPECIFIED.,.F.,.F.)
B_SPLINE_CURVE_WITH_KNOTS((3,3),(0.636508164438417,0.80918706270955),
 .UNSPECIFIED.)
CURVE()
GEOMETRIC_REPRESENTATION_ITEM()
RATIONAL_B_SPLINE_CURVE((1.14555970466486,1.09252436688738,1.))
REPRESENTATION_ITEM('')
);
#113=(
BOUNDED_CURVE()
B_SPLINE_CURVE(2,(#399,#400,#401),.UNSPECIFIED.,.F.,.F.)
B_SPLINE_CURVE_WITH_KNOTS((3,3),(0.,0.172678898271132),.UNSPECIFIED.)
CURVE()
GEOMETRIC_REPRESENTATION_ITEM()
RATIONAL_B_SPLINE_CURVE((1.,1.09252436688738,1.14555970466486))
REPRESENTATION_ITEM('')
);
#114=VERTEX_POINT('',#372);
#115=VERTEX_POINT('',#373);
#116=VERTEX_POINT('',#377);
#117=VERTEX_POINT('',#379);
#118=VERTEX_POINT('',#385);
#119=VERTEX_POINT('',#387);
#120=VERTEX_POINT('',#391);
#121=VERTEX_POINT('',#392);
#122=VERTEX_POINT('',#396);
#123=VERTEX_POINT('',#398);
#124=VERTEX_POINT('',#405);
#125=VERTEX_POINT('',#408);
#126=VERTEX_POINT('',#410);
#127=VERTEX_POINT('',#414);
#128=VERTEX_POINT('',#419);
#129=VERTEX_POINT('',#421);
#130=VERTEX_POINT('',#428);
#131=VERTEX_POINT('',#432);
#132=VERTEX_POINT('',#434);
#133=VERTEX_POINT('',#435);
#134=EDGE_CURVE('',#114,#115,#110,.T.);
#135=EDGE_CURVE('',#115,#116,#96,.T.);
#136=EDGE_CURVE('',#116,#117,#111,.T.);
#137=EDGE_CURVE('',#117,#114,#97,.T.);
#138=EDGE_CURVE('',#117,#118,#27,.T.);
#139=EDGE_CURVE('',#118,#119,#98,.T.);
#140=EDGE_CURVE('',#119,#114,#28,.T.);
#141=EDGE_CURVE('',#120,#121,#112,.T.);
#142=EDGE_CURVE('',#121,#122,#99,.T.);
#143=EDGE_CURVE('',#122,#123,#113,.T.);
#144=EDGE_CURVE('',#123,#120,#100,.T.);
#145=EDGE_CURVE('',#121,#122,#29,.T.);
#146=EDGE_CURVE('',#124,#124,#101,.T.);
#147=EDGE_CURVE('',#125,#125,#102,.T.);
#148=EDGE_CURVE('',#125,#126,#30,.T.);
#149=EDGE_CURVE('',#126,#126,#103,.T.);
#150=EDGE_CURVE('',#126,#127,#31,.T.);
#151=EDGE_CURVE('',#127,#127,#104,.T.);
#152=EDGE_CURVE('',#128,#128,#105,.T.);
#153=EDGE_CURVE('',#128,#129,#32,.T.);
#154=EDGE_CURVE('',#129,#129,#106,.T.);
#155=EDGE_CURVE('',#129,#124,#33,.T.);
#156=EDGE_CURVE('',#130,#130,#107,.T.);
#157=EDGE_CURVE('',#119,#118,#34,.T.);
#158=EDGE_CURVE('',#131,#131,#108,.T.);
#159=EDGE_CURVE('',#132,#133,#35,.T.);
#160=EDGE_CURVE('',#133,#132,#109,.T.);
#161=EDGE_CURVE('',#131,#130,#36,.T.);
#162=EDGE_CURVE('',#123,#133,#37,.T.);
#163=EDGE_CURVE('',#132,#120,#38,.T.);
#164=EDGE_CURVE('',#115,#116,#39,.T.);
#165=ORIENTED_EDGE('',*,*,#134,.T.);
#166=ORIENTED_EDGE('',*,*,#135,.T.);
#167=ORIENTED_EDGE('',*,*,#136,.T.);
#168=ORIENTED_EDGE('',*,*,#137,.T.);
#169=ORIENTED_EDGE('',*,*,#137,.F.);
#170=ORIENTED_EDGE('',*,*,#138,.T.);
#171=ORIENTED_EDGE('',*,*,#139,.T.);
#172=ORIENTED_EDGE('',*,*,#140,.T.);
#173=ORIENTED_EDGE('',*,*,#141,.T.);
#174=ORIENTED_EDGE('',*,*,#142,.T.);
#175=ORIENTED_EDGE('',*,*,#143,.T.);
#176=ORIENTED_EDGE('',*,*,#144,.T.);
#177=ORIENTED_EDGE('',*,*,#142,.F.);
#178=ORIENTED_EDGE('',*,*,#145,.T.);
#179=ORIENTED_EDGE('',*,*,#146,.T.);
#180=ORIENTED_EDGE('',*,*,#147,.T.);
#181=ORIENTED_EDGE('',*,*,#148,.T.);
#182=ORIENTED_EDGE('',*,*,#149,.T.);
#183=ORIENTED_EDGE('',*,*,#148,.F.);
#184=ORIENTED_EDGE('',*,*,#149,.F.);
#185=ORIENTED_EDGE('',*,*,#150,.T.);
#186=ORIENTED_EDGE('',*,*,#151,.F.);
#187=ORIENTED_EDGE('',*,*,#150,.F.);
#188=ORIENTED_EDGE('',*,*,#147,.F.);
#189=ORIENTED_EDGE('',*,*,#152,.T.);
#190=ORIENTED_EDGE('',*,*,#153,.T.);
#191=ORIENTED_EDGE('',*,*,#154,.T.);
#192=ORIENTED_EDGE('',*,*,#153,.F.);
#193=ORIENTED_EDGE('',*,*,#154,.F.);
#194=ORIENTED_EDGE('',*,*,#155,.T.);
#195=ORIENTED_EDGE('',*,*,#146,.F.);
#196=ORIENTED_EDGE('',*,*,#155,.F.);
#197=ORIENTED_EDGE('',*,*,#152,.F.);
#198=ORIENTED_EDGE('',*,*,#156,.T.);
#199=ORIENTED_EDGE('',*,*,#157,.F.);
#200=ORIENTED_EDGE('',*,*,#139,.F.);
#201=ORIENTED_EDGE('',*,*,#158,.T.);
#202=ORIENTED_EDGE('',*,*,#159,.F.);
#203=ORIENTED_EDGE('',*,*,#160,.F.);
#204=ORIENTED_EDGE('',*,*,#158,.F.);
#205=ORIENTED_EDGE('',*,*,#161,.T.);
#206=ORIENTED_EDGE('',*,*,#156,.F.);
#207=ORIENTED_EDGE('',*,*,#161,.F.);
#208=ORIENTED_EDGE('',*,*,#144,.F.);
#209=ORIENTED_EDGE('',*,*,#162,.T.);
#210=ORIENTED_EDGE('',*,*,#160,.T.);
#211=ORIENTED_EDGE('',*,*,#163,.T.);
#212=ORIENTED_EDGE('',*,*,#143,.F.);
#213=ORIENTED_EDGE('',*,*,#145,.F.);
#214=ORIENTED_EDGE('',*,*,#141,.F.);
#215=ORIENTED_EDGE('',*,*,#163,.F.);
#216=ORIENTED_EDGE('',*,*,#159,.T.);
#217=ORIENTED_EDGE('',*,*,#162,.F.);
#218=ORIENTED_EDGE('',*,*,#135,.F.);
#219=ORIENTED_EDGE('',*,*,#164,.T.);
#220=ORIENTED_EDGE('',*,*,#151,.T.);
#221=ORIENTED_EDGE('',*,*,#134,.F.);
#222=ORIENTED_EDGE('',*,*,#140,.F.);
#223=ORIENTED_EDGE('',*,*,#157,.T.);
#224=ORIENTED_EDGE('',*,*,#138,.F.);
#225=ORIENTED_EDGE('',*,*,#136,.F.);
#226=ORIENTED_EDGE('',*,*,#164,.F.);
#227=CONICAL_SURFACE('',#262,2.05,0.785398163397448);
#228=CONICAL_SURFACE('',#267,2.05,0.785398163397448);
#229=CONICAL_SURFACE('',#272,1.24,0.785398163397448);
#230=CONICAL_SURFACE('',#278,1.24,0.785398163397448);
#231=ADVANCED_FACE('',(#58),#227,.T.);
#232=ADVANCED_FACE('',(#59),#53,.T.);
#233=ADVANCED_FACE('',(#60),#228,.T.);
#234=ADVANCED_FACE('',(#61,#15),#19,.T.);
#235=ADVANCED_FACE('',(#62),#229,.T.);
#236=ADVANCED_FACE('',(#63),#54,.T.);
#237=ADVANCED_FACE('',(#64),#20,.T.);
#238=ADVANCED_FACE('',(#65),#230,.T.);
#239=ADVANCED_FACE('',(#66),#55,.T.);
#240=ADVANCED_FACE('',(#67),#21,.T.);
#241=ADVANCED_FACE('',(#68,#16),#22,.F.);
#242=ADVANCED_FACE('',(#69,#17),#23,.T.);
#243=ADVANCED_FACE('',(#70),#56,.T.);
#244=ADVANCED_FACE('',(#71),#57,.T.);
#245=ADVANCED_FACE('',(#72),#24,.T.);
#246=ADVANCED_FACE('',(#73,#18),#25,.F.);
#247=ADVANCED_FACE('',(#74),#26,.T.);
#248=CLOSED_SHELL('',(#231,#232,#233,#234,#235,#236,#237,#238,#239,#240,
#241,#242,#243,#244,#245,#246,#247));
#249=DERIVED_UNIT_ELEMENT(#251,1.);
#250=DERIVED_UNIT_ELEMENT(#452,-3.);
#251=(
MASS_UNIT()
NAMED_UNIT(*)
SI_UNIT(.KILO.,.GRAM.)
);
#252=DERIVED_UNIT((#249,#250));
#253=MEASURE_REPRESENTATION_ITEM('density measure',
POSITIVE_RATIO_MEASURE(8000.),#252);
#254=PROPERTY_DEFINITION_REPRESENTATION(#259,#256);
#255=PROPERTY_DEFINITION_REPRESENTATION(#260,#257);
#256=REPRESENTATION('material name',(#258),#449);
#257=REPRESENTATION('density',(#253),#449);
#258=DESCRIPTIVE_REPRESENTATION_ITEM('Acier inoxydable, poli',
'Acier inoxydable, poli');
#259=PROPERTY_DEFINITION('material property','material name',#459);
#260=PROPERTY_DEFINITION('material property','density of part',#459);
#261=AXIS2_PLACEMENT_3D('placement',#370,#293,#294);
#262=AXIS2_PLACEMENT_3D('',#371,#295,#296);
#263=AXIS2_PLACEMENT_3D('',#378,#297,#298);
#264=AXIS2_PLACEMENT_3D('',#383,#299,#300);
#265=AXIS2_PLACEMENT_3D('',#384,#301,#302);
#266=AXIS2_PLACEMENT_3D('',#388,#304,#305);
#267=AXIS2_PLACEMENT_3D('',#390,#307,#308);
#268=AXIS2_PLACEMENT_3D('',#397,#309,#310);
#269=AXIS2_PLACEMENT_3D('',#402,#311,#312);
#270=AXIS2_PLACEMENT_3D('',#403,#313,#314);
#271=AXIS2_PLACEMENT_3D('',#406,#316,#317);
#272=AXIS2_PLACEMENT_3D('',#407,#318,#319);
#273=AXIS2_PLACEMENT_3D('',#409,#320,#321);
#274=AXIS2_PLACEMENT_3D('',#412,#323,#324);
#275=AXIS2_PLACEMENT_3D('',#413,#325,#326);
#276=AXIS2_PLACEMENT_3D('',#416,#328,#329);
#277=AXIS2_PLACEMENT_3D('',#417,#330,#331);
#278=AXIS2_PLACEMENT_3D('',#418,#332,#333);
#279=AXIS2_PLACEMENT_3D('',#420,#334,#335);
#280=AXIS2_PLACEMENT_3D('',#423,#337,#338);
#281=AXIS2_PLACEMENT_3D('',#424,#339,#340);
#282=AXIS2_PLACEMENT_3D('',#426,#342,#343);
#283=AXIS2_PLACEMENT_3D('',#427,#344,#345);
#284=AXIS2_PLACEMENT_3D('',#429,#346,#347);
#285=AXIS2_PLACEMENT_3D('',#431,#349,#350);
#286=AXIS2_PLACEMENT_3D('',#433,#351,#352);
#287=AXIS2_PLACEMENT_3D('',#437,#354,#355);
#288=AXIS2_PLACEMENT_3D('',#438,#356,#357);
#289=AXIS2_PLACEMENT_3D('',#440,#359,#360);
#290=AXIS2_PLACEMENT_3D('',#443,#363,#364);
#291=AXIS2_PLACEMENT_3D('',#444,#365,#366);
#292=AXIS2_PLACEMENT_3D('',#446,#368,#369);
#293=DIRECTION('axis',(0.,0.,1.));
#294=DIRECTION('refdir',(1.,0.,0.));
#295=DIRECTION('center_axis',(0.,0.,1.));
#296=DIRECTION('ref_axis',(-1.83697019872103E-16,-1.,0.));
#297=DIRECTION('center_axis',(0.,0.,1.));
#298=DIRECTION('ref_axis',(1.,0.,0.));
#299=DIRECTION('center_axis',(0.,0.,-1.));
#300=DIRECTION('ref_axis',(1.,0.,0.));
#301=DIRECTION('center_axis',(0.,0.,1.));
#302=DIRECTION('ref_axis',(-1.83697019872103E-16,-1.,0.));
#303=DIRECTION('',(0.,0.,1.));
#304=DIRECTION('center_axis',(0.,0.,-1.));
#305=DIRECTION('ref_axis',(1.,0.,0.));
#306=DIRECTION('',(0.,0.,-1.));
#307=DIRECTION('center_axis',(0.,0.,-1.));
#308=DIRECTION('ref_axis',(6.12323399573677E-17,-1.,0.));
#309=DIRECTION('center_axis',(0.,0.,-1.));
#310=DIRECTION('ref_axis',(1.,0.,0.));
#311=DIRECTION('center_axis',(0.,0.,1.));
#312=DIRECTION('ref_axis',(1.,0.,0.));
#313=DIRECTION('center_axis',(0.,0.,1.));
#314=DIRECTION('ref_axis',(1.,0.,0.));
#315=DIRECTION('',(-1.,0.,0.));
#316=DIRECTION('center_axis',(0.,0.,-1.));
#317=DIRECTION('ref_axis',(1.,0.,0.));
#318=DIRECTION('center_axis',(0.,0.,1.));
#319=DIRECTION('ref_axis',(-1.,0.,0.));
#320=DIRECTION('center_axis',(0.,0.,1.));
#321=DIRECTION('ref_axis',(-1.,0.,0.));
#322=DIRECTION('',(0.707106781186547,-8.65956056235493E-17,0.707106781186548));
#323=DIRECTION('center_axis',(0.,0.,-1.));
#324=DIRECTION('ref_axis',(-1.,0.,0.));
#325=DIRECTION('center_axis',(0.,0.,-1.));
#326=DIRECTION('ref_axis',(-1.,0.,0.));
#327=DIRECTION('',(0.,0.,1.));
#328=DIRECTION('center_axis',(0.,0.,1.));
#329=DIRECTION('ref_axis',(-1.,0.,0.));
#330=DIRECTION('center_axis',(0.,0.,-1.));
#331=DIRECTION('ref_axis',(-1.,0.,0.));
#332=DIRECTION('center_axis',(0.,0.,-1.));
#333=DIRECTION('ref_axis',(1.,0.,0.));
#334=DIRECTION('center_axis',(0.,0.,-1.));
#335=DIRECTION('ref_axis',(1.,0.,0.));
#336=DIRECTION('',(-0.707106781186547,-8.65956056235493E-17,-0.707106781186548));
#337=DIRECTION('center_axis',(0.,0.,1.));
#338=DIRECTION('ref_axis',(1.,0.,0.));
#339=DIRECTION('center_axis',(0.,0.,1.));
#340=DIRECTION('ref_axis',(1.,0.,0.));
#341=DIRECTION('',(0.,0.,-1.));
#342=DIRECTION('center_axis',(0.,0.,1.));
#343=DIRECTION('ref_axis',(1.,0.,0.));
#344=DIRECTION('center_axis',(0.,0.,1.));
#345=DIRECTION('ref_axis',(1.,0.,0.));
#346=DIRECTION('center_axis',(0.,0.,-1.));
#347=DIRECTION('ref_axis',(1.,0.,0.));
#348=DIRECTION('',(1.,0.,0.));
#349=DIRECTION('center_axis',(0.,0.,1.));
#350=DIRECTION('ref_axis',(1.,0.,0.));
#351=DIRECTION('center_axis',(0.,0.,1.));
#352=DIRECTION('ref_axis',(1.,0.,0.));
#353=DIRECTION('',(-1.,0.,0.));
#354=DIRECTION('center_axis',(0.,0.,1.));
#355=DIRECTION('ref_axis',(1.,0.,0.));
#356=DIRECTION('center_axis',(0.,0.,1.));
#357=DIRECTION('ref_axis',(1.,0.,0.));
#358=DIRECTION('',(0.,0.,-1.));
#359=DIRECTION('center_axis',(0.,0.,1.));
#360=DIRECTION('ref_axis',(-1.83697019872103E-16,-1.,0.));
#361=DIRECTION('',(0.,0.,-1.));
#362=DIRECTION('',(0.,0.,1.));
#363=DIRECTION('center_axis',(0.,1.,0.));
#364=DIRECTION('ref_axis',(-1.,0.,0.));
#365=DIRECTION('center_axis',(0.,0.,1.));
#366=DIRECTION('ref_axis',(1.,0.,0.));
#367=DIRECTION('',(1.,0.,0.));
#368=DIRECTION('center_axis',(0.,1.,0.));
#369=DIRECTION('ref_axis',(-1.,0.,0.));
#370=CARTESIAN_POINT('',(0.,0.,0.));
#371=CARTESIAN_POINT('Origin',(0.,0.,-5.85));
#372=CARTESIAN_POINT('',(-1.1589219128138,1.87,-5.7));
#373=CARTESIAN_POINT('',(-0.336303434416006,1.87,-6.));
#374=CARTESIAN_POINT('Ctrl Pts',(-1.1589219128138,1.87,-5.7));
#375=CARTESIAN_POINT('Ctrl Pts',(-0.717516875624735,1.87,-5.93252453182946));
#376=CARTESIAN_POINT('Ctrl Pts',(-0.336303434415998,1.87,-6.));
#377=CARTESIAN_POINT('',(0.336303434416006,1.87,-6.));
#378=CARTESIAN_POINT('Origin',(0.,0.,-6.));
#379=CARTESIAN_POINT('',(1.1589219128138,1.87,-5.7));
#380=CARTESIAN_POINT('Ctrl Pts',(0.336303434415998,1.87,-6.));
#381=CARTESIAN_POINT('Ctrl Pts',(0.717516875624738,1.87,-5.93252453182945));
#382=CARTESIAN_POINT('Ctrl Pts',(1.1589219128138,1.87,-5.7));
#383=CARTESIAN_POINT('Origin',(0.,0.,-5.7));
#384=CARTESIAN_POINT('Origin',(0.,0.,0.));
#385=CARTESIAN_POINT('',(1.1589219128138,1.87,-1.));
#386=CARTESIAN_POINT('',(1.1589219128138,1.87,0.));
#387=CARTESIAN_POINT('',(-1.1589219128138,1.87,-1.));
#388=CARTESIAN_POINT('Origin',(0.,0.,-1.));
#389=CARTESIAN_POINT('',(-1.1589219128138,1.87,0.));
#390=CARTESIAN_POINT('Origin',(0.,0.,5.85));
#391=CARTESIAN_POINT('',(1.1589219128138,1.87,5.7));
#392=CARTESIAN_POINT('',(0.336303434416006,1.87,6.));
#393=CARTESIAN_POINT('Ctrl Pts',(1.1589219128138,1.87,5.7));
#394=CARTESIAN_POINT('Ctrl Pts',(0.717516875624735,1.87,5.93252453182946));
#395=CARTESIAN_POINT('Ctrl Pts',(0.336303434415998,1.87,6.));
#396=CARTESIAN_POINT('',(-0.336303434416006,1.87,6.));
#397=CARTESIAN_POINT('Origin',(0.,0.,6.));
#398=CARTESIAN_POINT('',(-1.1589219128138,1.87,5.7));
#399=CARTESIAN_POINT('Ctrl Pts',(-0.336303434415998,1.87,6.));
#400=CARTESIAN_POINT('Ctrl Pts',(-0.717516875624738,1.87,5.93252453182945));
#401=CARTESIAN_POINT('Ctrl Pts',(-1.1589219128138,1.87,5.7));
#402=CARTESIAN_POINT('Origin',(0.,0.,5.7));
#403=CARTESIAN_POINT('Origin',(0.,-0.165,6.));
#404=CARTESIAN_POINT('',(-1.1589219128138,1.87,6.));
#405=CARTESIAN_POINT('',(-1.49,-1.82472373072956E-16,6.));
#406=CARTESIAN_POINT('Origin',(0.,0.,6.));
#407=CARTESIAN_POINT('Origin',(0.,0.,-8.75));
#408=CARTESIAN_POINT('',(0.99,1.21240033115588E-16,-9.));
#409=CARTESIAN_POINT('Origin',(0.,0.,-9.));
#410=CARTESIAN_POINT('',(1.49,-1.82472373072956E-16,-8.5));
#411=CARTESIAN_POINT('',(1.24,-1.51856203094272E-16,-8.75));
#412=CARTESIAN_POINT('Origin',(0.,0.,-8.5));
#413=CARTESIAN_POINT('Origin',(0.,0.,-6.));
#414=CARTESIAN_POINT('',(1.49,-1.82472373072956E-16,-6.));
#415=CARTESIAN_POINT('',(1.49,-1.82472373072956E-16,-6.));
#416=CARTESIAN_POINT('Origin',(0.,0.,-6.));
#417=CARTESIAN_POINT('Origin',(0.,0.,-9.));
#418=CARTESIAN_POINT('Origin',(0.,0.,8.75));
#419=CARTESIAN_POINT('',(-0.99,1.21240033115588E-16,9.));
#420=CARTESIAN_POINT('Origin',(0.,0.,9.));
#421=CARTESIAN_POINT('',(-1.49,-1.82472373072956E-16,8.5));
#422=CARTESIAN_POINT('',(-1.24,-1.51856203094272E-16,8.75));
#423=CARTESIAN_POINT('Origin',(0.,0.,8.5));
#424=CARTESIAN_POINT('Origin',(0.,0.,6.));
#425=CARTESIAN_POINT('',(-1.49,-1.82472373072956E-16,6.));
#426=CARTESIAN_POINT('Origin',(0.,0.,9.));
#427=CARTESIAN_POINT('Origin',(0.,0.,-1.));
#428=CARTESIAN_POINT('',(-3.5,-4.28626379701574E-16,-1.));
#429=CARTESIAN_POINT('Origin',(0.,0.,-1.));
#430=CARTESIAN_POINT('',(0.579460956406901,1.87,-1.));
#431=CARTESIAN_POINT('Origin',(0.,0.,1.));
#432=CARTESIAN_POINT('',(-3.5,-4.28626379701574E-16,1.));
#433=CARTESIAN_POINT('Origin',(0.,0.,1.));
#434=CARTESIAN_POINT('',(1.1589219128138,1.87,1.));
#435=CARTESIAN_POINT('',(-1.1589219128138,1.87,1.));
#436=CARTESIAN_POINT('',(0.579460956406901,1.87,1.));
#437=CARTESIAN_POINT('Origin',(0.,0.,1.));
#438=CARTESIAN_POINT('Origin',(0.,0.,0.));
#439=CARTESIAN_POINT('',(-3.5,-4.28626379701574E-16,0.));
#440=CARTESIAN_POINT('Origin',(0.,0.,0.));
#441=CARTESIAN_POINT('',(-1.1589219128138,1.87,0.));
#442=CARTESIAN_POINT('',(1.1589219128138,1.87,0.));
#443=CARTESIAN_POINT('Origin',(1.1589219128138,1.87,0.));
#444=CARTESIAN_POINT('Origin',(0.,-0.165,-6.));
#445=CARTESIAN_POINT('',(-1.1589219128138,1.87,-6.));
#446=CARTESIAN_POINT('Origin',(1.1589219128138,1.87,0.));
#447=UNCERTAINTY_MEASURE_WITH_UNIT(LENGTH_MEASURE(0.01),#451,
'DISTANCE_ACCURACY_VALUE',
'Maximum model space distance between geometric entities at asserted c
onnectivities');
#448=UNCERTAINTY_MEASURE_WITH_UNIT(LENGTH_MEASURE(0.01),#451,
'DISTANCE_ACCURACY_VALUE',
'Maximum model space distance between geometric entities at asserted c
onnectivities');
#449=(
GEOMETRIC_REPRESENTATION_CONTEXT(3)
GLOBAL_UNCERTAINTY_ASSIGNED_CONTEXT((#447))
GLOBAL_UNIT_ASSIGNED_CONTEXT((#451,#453,#454))
REPRESENTATION_CONTEXT('','3D')
);
#450=(
GEOMETRIC_REPRESENTATION_CONTEXT(3)
GLOBAL_UNCERTAINTY_ASSIGNED_CONTEXT((#448))
GLOBAL_UNIT_ASSIGNED_CONTEXT((#451,#453,#454))
REPRESENTATION_CONTEXT('','3D')
);
#451=(
LENGTH_UNIT()
NAMED_UNIT(*)
SI_UNIT(.MILLI.,.METRE.)
);
#452=(
LENGTH_UNIT()
NAMED_UNIT(*)
SI_UNIT($,.METRE.)
);
#453=(
NAMED_UNIT(*)
PLANE_ANGLE_UNIT()
SI_UNIT($,.RADIAN.)
);
#454=(
NAMED_UNIT(*)
SI_UNIT($,.STERADIAN.)
SOLID_ANGLE_UNIT()
);
#455=SHAPE_DEFINITION_REPRESENTATION(#456,#457);
#456=PRODUCT_DEFINITION_SHAPE('',$,#459);
#457=SHAPE_REPRESENTATION('',(#261),#449);
#458=PRODUCT_DEFINITION_CONTEXT('part definition',#463,'design');
#459=PRODUCT_DEFINITION('Axe de renvoi','Axe de renvoi v13',#460,#458);
#460=PRODUCT_DEFINITION_FORMATION('',$,#465);
#461=PRODUCT_RELATED_PRODUCT_CATEGORY('Axe de renvoi v13',
'Axe de renvoi v13',(#465));
#462=APPLICATION_PROTOCOL_DEFINITION('international standard',
'automotive_design',2009,#463);
#463=APPLICATION_CONTEXT(
'Core Data for Automotive Mechanical Design Process');
#464=PRODUCT_CONTEXT('part definition',#463,'mechanical');
#465=PRODUCT('Axe de renvoi','Axe de renvoi v13',$,(#464));
#466=PRESENTATION_STYLE_ASSIGNMENT((#467));
#467=SURFACE_STYLE_USAGE(.BOTH.,#468);
#468=SURFACE_SIDE_STYLE('',(#469));
#469=SURFACE_STYLE_FILL_AREA(#470);
#470=FILL_AREA_STYLE('Acier inoxydable - Poli',(#471));
#471=FILL_AREA_STYLE_COLOUR('Acier inoxydable - Poli',#472);
#472=COLOUR_RGB('Acier inoxydable - Poli',0.796078431372549,0.796078431372549,
0.796078431372549);
ENDSEC;
END-ISO-10303-21;
