ISO-10303-21;
HEADER;
/* Generated by software containing ST-Developer
 * from STEP Tools, Inc. (www.steptools.com) 
 */

FILE_DESCRIPTION(
/* description */ (''),
/* implementation_level */ '2;1');

FILE_NAME(
/* name */ 'C:/Users/Clos des Auges/Desktop/ALPHA/Porte lentille.step',

/* time_stamp */ '2021-03-26T19:15:47+01:00',
/* author */ (''),
/* organization */ (''),
/* preprocessor_version */ 'ST-DEVELOPER v18.1',
/* originating_system */ 'Autodesk Translation Framework v9.10.0.1330',

/* authorisation */ '');

FILE_SCHEMA (('AUTOMOTIVE_DESIGN { 1 0 10303 214 3 1 1 }'));
ENDSEC;

DATA;
#10=MECHANICAL_DESIGN_GEOMETRIC_PRESENTATION_REPRESENTATION('',(#13),#270);
#11=SHAPE_REPRESENTATION_RELATIONSHIP('SRR','None',#277,#12);
#12=ADVANCED_BREP_SHAPE_REPRESENTATION('',(#14),#269);
#13=STYLED_ITEM('',(#286),#14);
#14=MANIFOLD_SOLID_BREP('Corps1',#145);
#15=CYLINDRICAL_SURFACE('',#165,1.2645);
#16=CYLINDRICAL_SURFACE('',#169,3.);
#17=CYLINDRICAL_SURFACE('',#175,2.);
#18=FACE_BOUND('',#35,.T.);
#19=FACE_BOUND('',#44,.T.);
#20=PLANE('',#163);
#21=PLANE('',#177);
#22=PLANE('',#178);
#23=FACE_OUTER_BOUND('',#33,.T.);
#24=FACE_OUTER_BOUND('',#34,.T.);
#25=FACE_OUTER_BOUND('',#36,.T.);
#26=FACE_OUTER_BOUND('',#37,.T.);
#27=FACE_OUTER_BOUND('',#38,.T.);
#28=FACE_OUTER_BOUND('',#39,.T.);
#29=FACE_OUTER_BOUND('',#40,.T.);
#30=FACE_OUTER_BOUND('',#41,.T.);
#31=FACE_OUTER_BOUND('',#42,.T.);
#32=FACE_OUTER_BOUND('',#43,.T.);
#33=EDGE_LOOP('',(#97,#98,#99,#100,#101));
#34=EDGE_LOOP('',(#102));
#35=EDGE_LOOP('',(#103));
#36=EDGE_LOOP('',(#104,#105,#106,#107,#108));
#37=EDGE_LOOP('',(#109,#110,#111,#112));
#38=EDGE_LOOP('',(#113,#114,#115,#116));
#39=EDGE_LOOP('',(#117,#118,#119));
#40=EDGE_LOOP('',(#120,#121,#122,#123));
#41=EDGE_LOOP('',(#124,#125,#126,#127));
#42=EDGE_LOOP('',(#128));
#43=EDGE_LOOP('',(#129));
#44=EDGE_LOOP('',(#130));
#45=LINE('',#233,#52);
#46=LINE('',#242,#53);
#47=LINE('',#247,#54);
#48=LINE('',#251,#55);
#49=LINE('',#254,#56);
#50=LINE('',#259,#57);
#51=LINE('',#263,#58);
#52=VECTOR('',#185,1.5145);
#53=VECTOR('',#196,1.2645);
#54=VECTOR('',#203,2.75);
#55=VECTOR('',#208,3.);
#56=VECTOR('',#211,0.63225);
#57=VECTOR('',#216,1.5);
#58=VECTOR('',#221,2.);
#59=CIRCLE('',#160,1.7645);
#60=CIRCLE('',#161,1.2645);
#61=CIRCLE('',#162,1.2645);
#62=CIRCLE('',#164,2.5);
#63=CIRCLE('',#166,1.2645);
#64=CIRCLE('',#168,3.);
#65=CIRCLE('',#170,3.);
#66=CIRCLE('',#173,1.);
#67=CIRCLE('',#174,2.);
#68=CIRCLE('',#176,2.);
#69=VERTEX_POINT('',#230);
#70=VERTEX_POINT('',#232);
#71=VERTEX_POINT('',#234);
#72=VERTEX_POINT('',#238);
#73=VERTEX_POINT('',#241);
#74=VERTEX_POINT('',#245);
#75=VERTEX_POINT('',#249);
#76=VERTEX_POINT('',#253);
#77=VERTEX_POINT('',#256);
#78=VERTEX_POINT('',#258);
#79=VERTEX_POINT('',#262);
#80=EDGE_CURVE('',#69,#69,#59,.T.);
#81=EDGE_CURVE('',#69,#70,#45,.T.);
#82=EDGE_CURVE('',#70,#71,#60,.T.);
#83=EDGE_CURVE('',#71,#70,#61,.T.);
#84=EDGE_CURVE('',#72,#72,#62,.T.);
#85=EDGE_CURVE('',#71,#73,#46,.T.);
#86=EDGE_CURVE('',#73,#73,#63,.T.);
#87=EDGE_CURVE('',#74,#74,#64,.T.);
#88=EDGE_CURVE('',#74,#72,#47,.T.);
#89=EDGE_CURVE('',#75,#75,#65,.T.);
#90=EDGE_CURVE('',#75,#74,#48,.T.);
#91=EDGE_CURVE('',#73,#76,#49,.T.);
#92=EDGE_CURVE('',#77,#77,#66,.T.);
#93=EDGE_CURVE('',#77,#78,#50,.T.);
#94=EDGE_CURVE('',#78,#78,#67,.T.);
#95=EDGE_CURVE('',#78,#79,#51,.T.);
#96=EDGE_CURVE('',#79,#79,#68,.T.);
#97=ORIENTED_EDGE('',*,*,#80,.T.);
#98=ORIENTED_EDGE('',*,*,#81,.T.);
#99=ORIENTED_EDGE('',*,*,#82,.T.);
#100=ORIENTED_EDGE('',*,*,#83,.T.);
#101=ORIENTED_EDGE('',*,*,#81,.F.);
#102=ORIENTED_EDGE('',*,*,#84,.F.);
#103=ORIENTED_EDGE('',*,*,#80,.F.);
#104=ORIENTED_EDGE('',*,*,#82,.F.);
#105=ORIENTED_EDGE('',*,*,#83,.F.);
#106=ORIENTED_EDGE('',*,*,#85,.T.);
#107=ORIENTED_EDGE('',*,*,#86,.T.);
#108=ORIENTED_EDGE('',*,*,#85,.F.);
#109=ORIENTED_EDGE('',*,*,#87,.T.);
#110=ORIENTED_EDGE('',*,*,#88,.T.);
#111=ORIENTED_EDGE('',*,*,#84,.T.);
#112=ORIENTED_EDGE('',*,*,#88,.F.);
#113=ORIENTED_EDGE('',*,*,#89,.F.);
#114=ORIENTED_EDGE('',*,*,#90,.T.);
#115=ORIENTED_EDGE('',*,*,#87,.F.);
#116=ORIENTED_EDGE('',*,*,#90,.F.);
#117=ORIENTED_EDGE('',*,*,#86,.F.);
#118=ORIENTED_EDGE('',*,*,#91,.T.);
#119=ORIENTED_EDGE('',*,*,#91,.F.);
#120=ORIENTED_EDGE('',*,*,#92,.T.);
#121=ORIENTED_EDGE('',*,*,#93,.T.);
#122=ORIENTED_EDGE('',*,*,#94,.T.);
#123=ORIENTED_EDGE('',*,*,#93,.F.);
#124=ORIENTED_EDGE('',*,*,#94,.F.);
#125=ORIENTED_EDGE('',*,*,#95,.T.);
#126=ORIENTED_EDGE('',*,*,#96,.F.);
#127=ORIENTED_EDGE('',*,*,#95,.F.);
#128=ORIENTED_EDGE('',*,*,#92,.F.);
#129=ORIENTED_EDGE('',*,*,#89,.T.);
#130=ORIENTED_EDGE('',*,*,#96,.T.);
#131=CONICAL_SURFACE('',#159,1.5145,0.785398163397448);
#132=CONICAL_SURFACE('',#167,2.75,0.785398163397448);
#133=CONICAL_SURFACE('',#171,0.63225,1.02974425867665);
#134=CONICAL_SURFACE('',#172,1.5,0.78539816339745);
#135=ADVANCED_FACE('',(#23),#131,.F.);
#136=ADVANCED_FACE('',(#24,#18),#20,.F.);
#137=ADVANCED_FACE('',(#25),#15,.F.);
#138=ADVANCED_FACE('',(#26),#132,.T.);
#139=ADVANCED_FACE('',(#27),#16,.T.);
#140=ADVANCED_FACE('',(#28),#133,.F.);
#141=ADVANCED_FACE('',(#29),#134,.T.);
#142=ADVANCED_FACE('',(#30),#17,.T.);
#143=ADVANCED_FACE('',(#31),#21,.T.);
#144=ADVANCED_FACE('',(#32,#19),#22,.T.);
#145=CLOSED_SHELL('',(#135,#136,#137,#138,#139,#140,#141,#142,#143,#144));
#146=DERIVED_UNIT_ELEMENT(#148,1.);
#147=DERIVED_UNIT_ELEMENT(#272,-3.);
#148=(
MASS_UNIT()
NAMED_UNIT(*)
SI_UNIT(.KILO.,.GRAM.)
);
#149=DERIVED_UNIT((#146,#147));
#150=MEASURE_REPRESENTATION_ITEM('density measure',
POSITIVE_RATIO_MEASURE(2700.),#149);
#151=PROPERTY_DEFINITION_REPRESENTATION(#156,#153);
#152=PROPERTY_DEFINITION_REPRESENTATION(#157,#154);
#153=REPRESENTATION('material name',(#155),#269);
#154=REPRESENTATION('density',(#150),#269);
#155=DESCRIPTIVE_REPRESENTATION_ITEM('Aluminium','Aluminium');
#156=PROPERTY_DEFINITION('material property','material name',#279);
#157=PROPERTY_DEFINITION('material property','density of part',#279);
#158=AXIS2_PLACEMENT_3D('placement',#228,#179,#180);
#159=AXIS2_PLACEMENT_3D('',#229,#181,#182);
#160=AXIS2_PLACEMENT_3D('',#231,#183,#184);
#161=AXIS2_PLACEMENT_3D('',#235,#186,#187);
#162=AXIS2_PLACEMENT_3D('',#236,#188,#189);
#163=AXIS2_PLACEMENT_3D('',#237,#190,#191);
#164=AXIS2_PLACEMENT_3D('',#239,#192,#193);
#165=AXIS2_PLACEMENT_3D('',#240,#194,#195);
#166=AXIS2_PLACEMENT_3D('',#243,#197,#198);
#167=AXIS2_PLACEMENT_3D('',#244,#199,#200);
#168=AXIS2_PLACEMENT_3D('',#246,#201,#202);
#169=AXIS2_PLACEMENT_3D('',#248,#204,#205);
#170=AXIS2_PLACEMENT_3D('',#250,#206,#207);
#171=AXIS2_PLACEMENT_3D('',#252,#209,#210);
#172=AXIS2_PLACEMENT_3D('',#255,#212,#213);
#173=AXIS2_PLACEMENT_3D('',#257,#214,#215);
#174=AXIS2_PLACEMENT_3D('',#260,#217,#218);
#175=AXIS2_PLACEMENT_3D('',#261,#219,#220);
#176=AXIS2_PLACEMENT_3D('',#264,#222,#223);
#177=AXIS2_PLACEMENT_3D('',#265,#224,#225);
#178=AXIS2_PLACEMENT_3D('',#266,#226,#227);
#179=DIRECTION('axis',(0.,0.,1.));
#180=DIRECTION('refdir',(1.,0.,0.));
#181=DIRECTION('center_axis',(0.,0.,-1.));
#182=DIRECTION('ref_axis',(1.,0.,0.));
#183=DIRECTION('center_axis',(0.,0.,-1.));
#184=DIRECTION('ref_axis',(1.,0.,0.));
#185=DIRECTION('',(0.707106781186547,-8.65956056235493E-17,0.707106781186548));
#186=DIRECTION('center_axis',(0.,0.,1.));
#187=DIRECTION('ref_axis',(1.,0.,0.));
#188=DIRECTION('center_axis',(0.,0.,1.));
#189=DIRECTION('ref_axis',(1.,0.,0.));
#190=DIRECTION('center_axis',(0.,0.,1.));
#191=DIRECTION('ref_axis',(1.,0.,0.));
#192=DIRECTION('center_axis',(0.,0.,1.));
#193=DIRECTION('ref_axis',(1.,0.,0.));
#194=DIRECTION('center_axis',(0.,0.,1.));
#195=DIRECTION('ref_axis',(-1.,0.,0.));
#196=DIRECTION('',(0.,0.,1.));
#197=DIRECTION('center_axis',(0.,0.,1.));
#198=DIRECTION('ref_axis',(-1.,0.,0.));
#199=DIRECTION('center_axis',(0.,0.,1.));
#200=DIRECTION('ref_axis',(1.,0.,0.));
#201=DIRECTION('center_axis',(0.,0.,-1.));
#202=DIRECTION('ref_axis',(1.,0.,0.));
#203=DIRECTION('',(0.707106781186547,8.65956056235493E-17,-0.707106781186548));
#204=DIRECTION('center_axis',(0.,0.,1.));
#205=DIRECTION('ref_axis',(1.,0.,0.));
#206=DIRECTION('center_axis',(0.,0.,1.));
#207=DIRECTION('ref_axis',(1.,0.,0.));
#208=DIRECTION('',(0.,0.,-1.));
#209=DIRECTION('center_axis',(0.,0.,-1.));
#210=DIRECTION('ref_axis',(-1.,0.,0.));
#211=DIRECTION('',(-0.857167300702112,-1.04972719113862E-16,0.515038074910054));
#212=DIRECTION('center_axis',(0.,0.,-1.));
#213=DIRECTION('ref_axis',(1.,0.,0.));
#214=DIRECTION('center_axis',(0.,0.,-1.));
#215=DIRECTION('ref_axis',(1.,0.,0.));
#216=DIRECTION('',(-0.707106781186549,-8.65956056235495E-17,-0.707106781186546));
#217=DIRECTION('center_axis',(0.,0.,1.));
#218=DIRECTION('ref_axis',(1.,0.,0.));
#219=DIRECTION('center_axis',(0.,0.,1.));
#220=DIRECTION('ref_axis',(1.,0.,0.));
#221=DIRECTION('',(0.,0.,-1.));
#222=DIRECTION('center_axis',(0.,0.,-1.));
#223=DIRECTION('ref_axis',(1.,0.,0.));
#224=DIRECTION('center_axis',(0.,0.,1.));
#225=DIRECTION('ref_axis',(1.,0.,0.));
#226=DIRECTION('center_axis',(0.,0.,1.));
#227=DIRECTION('ref_axis',(1.,0.,0.));
#228=CARTESIAN_POINT('',(0.,0.,0.));
#229=CARTESIAN_POINT('Origin',(1.16945154975581E-16,0.,0.25));
#230=CARTESIAN_POINT('',(-1.7645,2.1608892770955E-16,0.));
#231=CARTESIAN_POINT('Origin',(1.16945154975581E-16,0.,0.));
#232=CARTESIAN_POINT('',(-1.2645,-1.54856587752183E-16,0.5));
#233=CARTESIAN_POINT('',(-1.5145,1.85472757730867E-16,0.25));
#234=CARTESIAN_POINT('',(1.2645,1.54856587752183E-16,0.5));
#235=CARTESIAN_POINT('Origin',(1.16945154975581E-16,0.,0.5));
#236=CARTESIAN_POINT('Origin',(1.16945154975581E-16,0.,0.5));
#237=CARTESIAN_POINT('Origin',(0.,0.,0.));
#238=CARTESIAN_POINT('',(-2.5,-3.06161699786838E-16,0.));
#239=CARTESIAN_POINT('Origin',(0.,0.,0.));
#240=CARTESIAN_POINT('Origin',(1.16945154975581E-16,0.,8.));
#241=CARTESIAN_POINT('',(1.2645,1.54856587752183E-16,16.));
#242=CARTESIAN_POINT('',(1.2645,1.54856587752183E-16,8.));
#243=CARTESIAN_POINT('Origin',(1.16945154975581E-16,0.,16.));
#244=CARTESIAN_POINT('Origin',(0.,0.,0.25));
#245=CARTESIAN_POINT('',(-3.,3.67394039744206E-16,0.5));
#246=CARTESIAN_POINT('Origin',(0.,0.,0.5));
#247=CARTESIAN_POINT('',(-2.75,-3.36777869765522E-16,0.25));
#248=CARTESIAN_POINT('Origin',(0.,0.,0.));
#249=CARTESIAN_POINT('',(-3.,-3.67394039744206E-16,50.));
#250=CARTESIAN_POINT('Origin',(0.,0.,50.));
#251=CARTESIAN_POINT('',(-3.,-3.67394039744206E-16,0.));
#252=CARTESIAN_POINT('Origin',(1.16945154975581E-16,0.,16.3798941263802));
#253=CARTESIAN_POINT('',(1.16945154975581E-16,0.,16.7597882527604));
#254=CARTESIAN_POINT('',(0.63225,7.74282938760914E-17,16.3798941263802));
#255=CARTESIAN_POINT('Origin',(0.,0.,65.5));
#256=CARTESIAN_POINT('',(-1.,1.22464679914735E-16,66.));
#257=CARTESIAN_POINT('Origin',(0.,0.,66.));
#258=CARTESIAN_POINT('',(-2.,-2.44929359829471E-16,65.));
#259=CARTESIAN_POINT('',(-1.5,-1.83697019872103E-16,65.5));
#260=CARTESIAN_POINT('Origin',(0.,0.,65.));
#261=CARTESIAN_POINT('Origin',(0.,0.,50.));
#262=CARTESIAN_POINT('',(-2.,-2.44929359829471E-16,50.));
#263=CARTESIAN_POINT('',(-2.,-2.44929359829471E-16,50.));
#264=CARTESIAN_POINT('Origin',(0.,0.,50.));
#265=CARTESIAN_POINT('Origin',(0.,0.,66.));
#266=CARTESIAN_POINT('Origin',(0.,0.,50.));
#267=UNCERTAINTY_MEASURE_WITH_UNIT(LENGTH_MEASURE(0.01),#271,
'DISTANCE_ACCURACY_VALUE',
'Maximum model space distance between geometric entities at asserted c
onnectivities');
#268=UNCERTAINTY_MEASURE_WITH_UNIT(LENGTH_MEASURE(0.01),#271,
'DISTANCE_ACCURACY_VALUE',
'Maximum model space distance between geometric entities at asserted c
onnectivities');
#269=(
GEOMETRIC_REPRESENTATION_CONTEXT(3)
GLOBAL_UNCERTAINTY_ASSIGNED_CONTEXT((#267))
GLOBAL_UNIT_ASSIGNED_CONTEXT((#271,#273,#274))
REPRESENTATION_CONTEXT('','3D')
);
#270=(
GEOMETRIC_REPRESENTATION_CONTEXT(3)
GLOBAL_UNCERTAINTY_ASSIGNED_CONTEXT((#268))
GLOBAL_UNIT_ASSIGNED_CONTEXT((#271,#273,#274))
REPRESENTATION_CONTEXT('','3D')
);
#271=(
LENGTH_UNIT()
NAMED_UNIT(*)
SI_UNIT(.MILLI.,.METRE.)
);
#272=(
LENGTH_UNIT()
NAMED_UNIT(*)
SI_UNIT($,.METRE.)
);
#273=(
NAMED_UNIT(*)
PLANE_ANGLE_UNIT()
SI_UNIT($,.RADIAN.)
);
#274=(
NAMED_UNIT(*)
SI_UNIT($,.STERADIAN.)
SOLID_ANGLE_UNIT()
);
#275=SHAPE_DEFINITION_REPRESENTATION(#276,#277);
#276=PRODUCT_DEFINITION_SHAPE('',$,#279);
#277=SHAPE_REPRESENTATION('',(#158),#269);
#278=PRODUCT_DEFINITION_CONTEXT('part definition',#283,'design');
#279=PRODUCT_DEFINITION('Porte lentille','Porte lentille v11',#280,#278);
#280=PRODUCT_DEFINITION_FORMATION('',$,#285);
#281=PRODUCT_RELATED_PRODUCT_CATEGORY('Porte lentille v11',
'Porte lentille v11',(#285));
#282=APPLICATION_PROTOCOL_DEFINITION('international standard',
'automotive_design',2009,#283);
#283=APPLICATION_CONTEXT(
'Core Data for Automotive Mechanical Design Process');
#284=PRODUCT_CONTEXT('part definition',#283,'mechanical');
#285=PRODUCT('Porte lentille','Porte lentille v11',$,(#284));
#286=PRESENTATION_STYLE_ASSIGNMENT((#287));
#287=SURFACE_STYLE_USAGE(.BOTH.,#288);
#288=SURFACE_SIDE_STYLE('',(#289));
#289=SURFACE_STYLE_FILL_AREA(#290);
#290=FILL_AREA_STYLE('Aluminium - Satin\X\E9',(#291));
#291=FILL_AREA_STYLE_COLOUR('Aluminium - Satin\X\E9',#292);
#292=COLOUR_RGB('Aluminium - Satin\X\E9',0.96078431372549,0.96078431372549,
0.964705882352941);
ENDSEC;
END-ISO-10303-21;
