ISO-10303-21;
HEADER;
/* Generated by software containing ST-Developer
 * from STEP Tools, Inc. (www.steptools.com) 
 */

FILE_DESCRIPTION(
/* description */ (''),
/* implementation_level */ '2;1');

FILE_NAME(
/* name */ 'E:\\stephane_larhant\\step\\rondelle8x20.stp',
/* time_stamp */ '2021-03-29T18:11:07+02:00',
/* author */ ('Utilisateur'),
/* organization */ (''),
/* preprocessor_version */ 'ST-DEVELOPER v16.5',
/* originating_system */ 'Autodesk Inventor 2017',
/* authorisation */ '');

FILE_SCHEMA (('AUTOMOTIVE_DESIGN { 1 0 10303 214 3 1 1 }'));
ENDSEC;

DATA;
#10=MECHANICAL_DESIGN_GEOMETRIC_PRESENTATION_REPRESENTATION('',(#13),#129);
#11=SHAPE_REPRESENTATION_RELATIONSHIP('SRR','None',#138,#12);
#12=ADVANCED_BREP_SHAPE_REPRESENTATION('',(#14),#128);
#13=STYLED_ITEM('',(#147),#14);
#14=MANIFOLD_SOLID_BREP('Solide1',#70);
#15=PLANE('',#83);
#16=PLANE('',#87);
#17=CYLINDRICAL_SURFACE('',#81,10.);
#18=CYLINDRICAL_SURFACE('',#85,4.1);
#19=FACE_BOUND('',#30,.T.);
#20=FACE_BOUND('',#32,.T.);
#21=FACE_BOUND('',#34,.T.);
#22=FACE_BOUND('',#36,.T.);
#23=FACE_BOUND('',#38,.T.);
#24=FACE_OUTER_BOUND('',#29,.T.);
#25=FACE_OUTER_BOUND('',#31,.T.);
#26=FACE_OUTER_BOUND('',#33,.T.);
#27=FACE_OUTER_BOUND('',#35,.T.);
#28=FACE_OUTER_BOUND('',#37,.T.);
#29=EDGE_LOOP('',(#54));
#30=EDGE_LOOP('',(#55));
#31=EDGE_LOOP('',(#56));
#32=EDGE_LOOP('',(#57));
#33=EDGE_LOOP('',(#58));
#34=EDGE_LOOP('',(#59));
#35=EDGE_LOOP('',(#60));
#36=EDGE_LOOP('',(#61));
#37=EDGE_LOOP('',(#62));
#38=EDGE_LOOP('',(#63));
#39=CIRCLE('',#79,10.);
#40=CIRCLE('',#80,9.);
#41=CIRCLE('',#82,10.);
#42=CIRCLE('',#84,4.1);
#43=CIRCLE('',#86,4.1);
#44=VERTEX_POINT('',#112);
#45=VERTEX_POINT('',#114);
#46=VERTEX_POINT('',#117);
#47=VERTEX_POINT('',#120);
#48=VERTEX_POINT('',#123);
#49=EDGE_CURVE('',#44,#44,#39,.T.);
#50=EDGE_CURVE('',#45,#45,#40,.T.);
#51=EDGE_CURVE('',#46,#46,#41,.T.);
#52=EDGE_CURVE('',#47,#47,#42,.T.);
#53=EDGE_CURVE('',#48,#48,#43,.T.);
#54=ORIENTED_EDGE('',*,*,#49,.T.);
#55=ORIENTED_EDGE('',*,*,#50,.T.);
#56=ORIENTED_EDGE('',*,*,#51,.F.);
#57=ORIENTED_EDGE('',*,*,#49,.F.);
#58=ORIENTED_EDGE('',*,*,#50,.F.);
#59=ORIENTED_EDGE('',*,*,#52,.T.);
#60=ORIENTED_EDGE('',*,*,#52,.F.);
#61=ORIENTED_EDGE('',*,*,#53,.F.);
#62=ORIENTED_EDGE('',*,*,#51,.T.);
#63=ORIENTED_EDGE('',*,*,#53,.T.);
#64=CONICAL_SURFACE('',#78,9.5,45.);
#65=ADVANCED_FACE('',(#24,#19),#64,.T.);
#66=ADVANCED_FACE('',(#25,#20),#17,.T.);
#67=ADVANCED_FACE('',(#26,#21),#15,.T.);
#68=ADVANCED_FACE('',(#27,#22),#18,.F.);
#69=ADVANCED_FACE('',(#28,#23),#16,.F.);
#70=CLOSED_SHELL('',(#65,#66,#67,#68,#69));
#71=DATE_TIME_ROLE('creation_date');
#72=APPLIED_DATE_AND_TIME_ASSIGNMENT(#73,#71,(#140));
#73=DATE_AND_TIME(#74,#75);
#74=CALENDAR_DATE(2021,9,2);
#75=LOCAL_TIME(9,58,46.,#76);
#76=COORDINATED_UNIVERSAL_TIME_OFFSET(0,0,.BEHIND.);
#77=AXIS2_PLACEMENT_3D('placement',#110,#88,#89);
#78=AXIS2_PLACEMENT_3D('',#111,#90,#91);
#79=AXIS2_PLACEMENT_3D('',#113,#92,#93);
#80=AXIS2_PLACEMENT_3D('',#115,#94,#95);
#81=AXIS2_PLACEMENT_3D('',#116,#96,#97);
#82=AXIS2_PLACEMENT_3D('',#118,#98,#99);
#83=AXIS2_PLACEMENT_3D('',#119,#100,#101);
#84=AXIS2_PLACEMENT_3D('',#121,#102,#103);
#85=AXIS2_PLACEMENT_3D('',#122,#104,#105);
#86=AXIS2_PLACEMENT_3D('',#124,#106,#107);
#87=AXIS2_PLACEMENT_3D('',#125,#108,#109);
#88=DIRECTION('axis',(0.,0.,1.));
#89=DIRECTION('refdir',(1.,0.,0.));
#90=DIRECTION('center_axis',(0.,0.,-1.));
#91=DIRECTION('ref_axis',(-1.,0.,0.));
#92=DIRECTION('center_axis',(0.,0.,1.));
#93=DIRECTION('ref_axis',(-1.,0.,0.));
#94=DIRECTION('center_axis',(0.,0.,-1.));
#95=DIRECTION('ref_axis',(-1.,0.,0.));
#96=DIRECTION('center_axis',(0.,0.,1.));
#97=DIRECTION('ref_axis',(-1.,0.,0.));
#98=DIRECTION('center_axis',(0.,0.,-1.));
#99=DIRECTION('ref_axis',(-1.,0.,0.));
#100=DIRECTION('center_axis',(0.,0.,1.));
#101=DIRECTION('ref_axis',(1.,0.,0.));
#102=DIRECTION('center_axis',(0.,0.,-1.));
#103=DIRECTION('ref_axis',(-1.,0.,0.));
#104=DIRECTION('center_axis',(0.,0.,1.));
#105=DIRECTION('ref_axis',(-1.,0.,0.));
#106=DIRECTION('center_axis',(0.,0.,1.));
#107=DIRECTION('ref_axis',(-1.,0.,0.));
#108=DIRECTION('center_axis',(0.,0.,1.));
#109=DIRECTION('ref_axis',(1.,0.,0.));
#110=CARTESIAN_POINT('',(0.,0.,0.));
#111=CARTESIAN_POINT('Origin',(0.,0.,2.5));
#112=CARTESIAN_POINT('',(10.,1.22464679914735E-15,2.));
#113=CARTESIAN_POINT('Origin',(0.,0.,2.));
#114=CARTESIAN_POINT('',(9.,-1.10218211923262E-15,3.));
#115=CARTESIAN_POINT('Origin',(0.,0.,3.));
#116=CARTESIAN_POINT('Origin',(0.,0.,0.));
#117=CARTESIAN_POINT('',(10.,1.22464679914735E-15,0.));
#118=CARTESIAN_POINT('Origin',(0.,0.,0.));
#119=CARTESIAN_POINT('Origin',(-4.72128241470665E-16,0.,3.));
#120=CARTESIAN_POINT('',(4.1,5.02105187650415E-16,3.));
#121=CARTESIAN_POINT('Origin',(0.,0.,3.));
#122=CARTESIAN_POINT('Origin',(0.,0.,0.));
#123=CARTESIAN_POINT('',(4.1,5.02105187650415E-16,0.));
#124=CARTESIAN_POINT('Origin',(0.,0.,0.));
#125=CARTESIAN_POINT('Origin',(-4.72128241470665E-16,0.,0.));
#126=UNCERTAINTY_MEASURE_WITH_UNIT(LENGTH_MEASURE(0.01),#130,
'DISTANCE_ACCURACY_VALUE',
'Maximum model space distance between geometric entities at asserted c
onnectivities');
#127=UNCERTAINTY_MEASURE_WITH_UNIT(LENGTH_MEASURE(1.E-6),#130,
'DISTANCE_ACCURACY_VALUE',
'Maximum model space distance between geometric entities at asserted c
onnectivities');
#128=(
GEOMETRIC_REPRESENTATION_CONTEXT(3)
GLOBAL_UNCERTAINTY_ASSIGNED_CONTEXT((#126))
GLOBAL_UNIT_ASSIGNED_CONTEXT((#130,#133,#131))
REPRESENTATION_CONTEXT('','3D')
);
#129=(
GEOMETRIC_REPRESENTATION_CONTEXT(3)
GLOBAL_UNCERTAINTY_ASSIGNED_CONTEXT((#127))
GLOBAL_UNIT_ASSIGNED_CONTEXT((#130,#133,#131))
REPRESENTATION_CONTEXT('','3D')
);
#130=(
LENGTH_UNIT()
NAMED_UNIT(*)
SI_UNIT(.MILLI.,.METRE.)
);
#131=(
NAMED_UNIT(*)
SI_UNIT($,.STERADIAN.)
SOLID_ANGLE_UNIT()
);
#132=DIMENSIONAL_EXPONENTS(0.,0.,0.,0.,0.,0.,0.);
#133=(
CONVERSION_BASED_UNIT('degree',#135)
NAMED_UNIT(#132)
PLANE_ANGLE_UNIT()
);
#134=(
NAMED_UNIT(*)
PLANE_ANGLE_UNIT()
SI_UNIT($,.RADIAN.)
);
#135=PLANE_ANGLE_MEASURE_WITH_UNIT(PLANE_ANGLE_MEASURE(0.01745329252),#134);
#136=SHAPE_DEFINITION_REPRESENTATION(#137,#138);
#137=PRODUCT_DEFINITION_SHAPE('',$,#140);
#138=SHAPE_REPRESENTATION('',(#77),#128);
#139=PRODUCT_DEFINITION_CONTEXT('part definition',#144,'design');
#140=PRODUCT_DEFINITION('rondelle8x20','rondelle8x20',#141,#139);
#141=PRODUCT_DEFINITION_FORMATION('',$,#146);
#142=PRODUCT_RELATED_PRODUCT_CATEGORY('rondelle8x20','rondelle8x20',(#146));
#143=APPLICATION_PROTOCOL_DEFINITION('international standard',
'automotive_design',2009,#144);
#144=APPLICATION_CONTEXT(
'Core Data for Automotive Mechanical Design Process');
#145=PRODUCT_CONTEXT('part definition',#144,'mechanical');
#146=PRODUCT('rondelle8x20','rondelle8x20',$,(#145));
#147=PRESENTATION_STYLE_ASSIGNMENT((#148));
#148=SURFACE_STYLE_USAGE(.BOTH.,#149);
#149=SURFACE_SIDE_STYLE('',(#150));
#150=SURFACE_STYLE_FILL_AREA(#151);
#151=FILL_AREA_STYLE('',(#152));
#152=FILL_AREA_STYLE_COLOUR('',#153);
#153=COLOUR_RGB('',0.745098039215686,0.737254901960784,0.729411764705882);
ENDSEC;
END-ISO-10303-21;
