ISO-10303-21;
HEADER;
/* Generated by software containing ST-Developer
 * from STEP Tools, Inc. (www.steptools.com) 
 */

FILE_DESCRIPTION(
/* description */ (''),
/* implementation_level */ '2;1');

FILE_NAME(
/* name */ 'E:\\stephane_larhant\\step\\axe_porte_outil_ecrou_pince.st
p',
/* time_stamp */ '2021-03-29T18:32:31+02:00',
/* author */ ('Utilisateur'),
/* organization */ (''),
/* preprocessor_version */ 'ST-DEVELOPER v16.5',
/* originating_system */ 'Autodesk Inventor 2017',
/* authorisation */ '');

FILE_SCHEMA (('AP203_CONFIGURATION_CONTROLLED_3D_DESIGN_OF_MECHANICAL_PARTS_AND_ASSEMBLIES_MIM_LF { 1 0 10303 203 3 1 4 }',
'AUTOMOTIVE_DESIGN { 1 0 10303 214 3 1 1 }'));
ENDSEC;

DATA;
#10=MECHANICAL_DESIGN_GEOMETRIC_PRESENTATION_REPRESENTATION('',(#13),#215);
#11=SHAPE_REPRESENTATION_RELATIONSHIP('SRR','None',#224,#12);
#12=ADVANCED_BREP_SHAPE_REPRESENTATION('',(#14),#214);
#13=STYLED_ITEM('',(#233),#14);
#14=MANIFOLD_SOLID_BREP('Solide1',#116);
#15=PLANE('',#129);
#16=PLANE('',#136);
#17=PLANE('',#141);
#18=CYLINDRICAL_SURFACE('',#127,11.75);
#19=CYLINDRICAL_SURFACE('',#134,9.188);
#20=CYLINDRICAL_SURFACE('',#140,6.);
#21=FACE_BOUND('',#40,.T.);
#22=FACE_BOUND('',#42,.T.);
#23=FACE_BOUND('',#44,.T.);
#24=FACE_BOUND('',#46,.T.);
#25=FACE_BOUND('',#48,.T.);
#26=FACE_BOUND('',#50,.T.);
#27=FACE_BOUND('',#52,.T.);
#28=FACE_BOUND('',#54,.T.);
#29=FACE_OUTER_BOUND('',#39,.T.);
#30=FACE_OUTER_BOUND('',#41,.T.);
#31=FACE_OUTER_BOUND('',#43,.T.);
#32=FACE_OUTER_BOUND('',#45,.T.);
#33=FACE_OUTER_BOUND('',#47,.T.);
#34=FACE_OUTER_BOUND('',#49,.T.);
#35=FACE_OUTER_BOUND('',#51,.T.);
#36=FACE_OUTER_BOUND('',#53,.T.);
#37=FACE_OUTER_BOUND('',#55,.T.);
#38=FACE_OUTER_BOUND('',#56,.T.);
#39=EDGE_LOOP('',(#84));
#40=EDGE_LOOP('',(#85));
#41=EDGE_LOOP('',(#86));
#42=EDGE_LOOP('',(#87));
#43=EDGE_LOOP('',(#88));
#44=EDGE_LOOP('',(#89));
#45=EDGE_LOOP('',(#90));
#46=EDGE_LOOP('',(#91));
#47=EDGE_LOOP('',(#92));
#48=EDGE_LOOP('',(#93));
#49=EDGE_LOOP('',(#94));
#50=EDGE_LOOP('',(#95));
#51=EDGE_LOOP('',(#96));
#52=EDGE_LOOP('',(#97));
#53=EDGE_LOOP('',(#98));
#54=EDGE_LOOP('',(#99));
#55=EDGE_LOOP('',(#100));
#56=EDGE_LOOP('',(#101));
#57=CIRCLE('',#125,11.75);
#58=CIRCLE('',#126,10.75);
#59=CIRCLE('',#128,11.75);
#60=CIRCLE('',#130,6.);
#61=CIRCLE('',#132,9.188);
#62=CIRCLE('',#133,10.188);
#63=CIRCLE('',#135,9.188);
#64=CIRCLE('',#138,6.);
#65=CIRCLE('',#139,5.);
#66=VERTEX_POINT('',#185);
#67=VERTEX_POINT('',#187);
#68=VERTEX_POINT('',#190);
#69=VERTEX_POINT('',#193);
#70=VERTEX_POINT('',#196);
#71=VERTEX_POINT('',#198);
#72=VERTEX_POINT('',#201);
#73=VERTEX_POINT('',#205);
#74=VERTEX_POINT('',#207);
#75=EDGE_CURVE('',#66,#66,#57,.T.);
#76=EDGE_CURVE('',#67,#67,#58,.T.);
#77=EDGE_CURVE('',#68,#68,#59,.T.);
#78=EDGE_CURVE('',#69,#69,#60,.T.);
#79=EDGE_CURVE('',#70,#70,#61,.T.);
#80=EDGE_CURVE('',#71,#71,#62,.T.);
#81=EDGE_CURVE('',#72,#72,#63,.T.);
#82=EDGE_CURVE('',#73,#73,#64,.T.);
#83=EDGE_CURVE('',#74,#74,#65,.T.);
#84=ORIENTED_EDGE('',*,*,#75,.T.);
#85=ORIENTED_EDGE('',*,*,#76,.T.);
#86=ORIENTED_EDGE('',*,*,#77,.F.);
#87=ORIENTED_EDGE('',*,*,#75,.F.);
#88=ORIENTED_EDGE('',*,*,#76,.F.);
#89=ORIENTED_EDGE('',*,*,#78,.T.);
#90=ORIENTED_EDGE('',*,*,#79,.T.);
#91=ORIENTED_EDGE('',*,*,#80,.T.);
#92=ORIENTED_EDGE('',*,*,#81,.F.);
#93=ORIENTED_EDGE('',*,*,#79,.F.);
#94=ORIENTED_EDGE('',*,*,#77,.T.);
#95=ORIENTED_EDGE('',*,*,#80,.F.);
#96=ORIENTED_EDGE('',*,*,#82,.T.);
#97=ORIENTED_EDGE('',*,*,#83,.T.);
#98=ORIENTED_EDGE('',*,*,#78,.F.);
#99=ORIENTED_EDGE('',*,*,#82,.F.);
#100=ORIENTED_EDGE('',*,*,#83,.F.);
#101=ORIENTED_EDGE('',*,*,#81,.T.);
#102=CONICAL_SURFACE('',#124,11.25,45.);
#103=CONICAL_SURFACE('',#131,9.688,45.);
#104=CONICAL_SURFACE('',#137,5.5,45.0000000000001);
#105=CONICAL_SURFACE('',#142,4.594,59.);
#106=ADVANCED_FACE('',(#29,#21),#102,.T.);
#107=ADVANCED_FACE('',(#30,#22),#18,.T.);
#108=ADVANCED_FACE('',(#31,#23),#15,.F.);
#109=ADVANCED_FACE('',(#32,#24),#103,.F.);
#110=ADVANCED_FACE('',(#33,#25),#19,.F.);
#111=ADVANCED_FACE('',(#34,#26),#16,.T.);
#112=ADVANCED_FACE('',(#35,#27),#104,.T.);
#113=ADVANCED_FACE('',(#36,#28),#20,.T.);
#114=ADVANCED_FACE('',(#37),#17,.F.);
#115=ADVANCED_FACE('',(#38),#105,.F.);
#116=CLOSED_SHELL('',(#106,#107,#108,#109,#110,#111,#112,#113,#114,#115));
#117=DATE_TIME_ROLE('creation_date');
#118=APPLIED_DATE_AND_TIME_ASSIGNMENT(#119,#117,(#226));
#119=DATE_AND_TIME(#120,#121);
#120=CALENDAR_DATE(2021,19,2);
#121=LOCAL_TIME(9,24,7.,#122);
#122=COORDINATED_UNIVERSAL_TIME_OFFSET(0,0,.BEHIND.);
#123=AXIS2_PLACEMENT_3D('placement',#183,#143,#144);
#124=AXIS2_PLACEMENT_3D('',#184,#145,#146);
#125=AXIS2_PLACEMENT_3D('',#186,#147,#148);
#126=AXIS2_PLACEMENT_3D('',#188,#149,#150);
#127=AXIS2_PLACEMENT_3D('',#189,#151,#152);
#128=AXIS2_PLACEMENT_3D('',#191,#153,#154);
#129=AXIS2_PLACEMENT_3D('',#192,#155,#156);
#130=AXIS2_PLACEMENT_3D('',#194,#157,#158);
#131=AXIS2_PLACEMENT_3D('',#195,#159,#160);
#132=AXIS2_PLACEMENT_3D('',#197,#161,#162);
#133=AXIS2_PLACEMENT_3D('',#199,#163,#164);
#134=AXIS2_PLACEMENT_3D('',#200,#165,#166);
#135=AXIS2_PLACEMENT_3D('',#202,#167,#168);
#136=AXIS2_PLACEMENT_3D('',#203,#169,#170);
#137=AXIS2_PLACEMENT_3D('',#204,#171,#172);
#138=AXIS2_PLACEMENT_3D('',#206,#173,#174);
#139=AXIS2_PLACEMENT_3D('',#208,#175,#176);
#140=AXIS2_PLACEMENT_3D('',#209,#177,#178);
#141=AXIS2_PLACEMENT_3D('',#210,#179,#180);
#142=AXIS2_PLACEMENT_3D('',#211,#181,#182);
#143=DIRECTION('axis',(0.,0.,1.));
#144=DIRECTION('refdir',(1.,0.,0.));
#145=DIRECTION('center_axis',(0.,0.,1.));
#146=DIRECTION('ref_axis',(-1.,0.,0.));
#147=DIRECTION('center_axis',(0.,0.,-1.));
#148=DIRECTION('ref_axis',(-1.,0.,0.));
#149=DIRECTION('center_axis',(0.,0.,1.));
#150=DIRECTION('ref_axis',(-1.,0.,0.));
#151=DIRECTION('center_axis',(0.,0.,1.));
#152=DIRECTION('ref_axis',(-1.,0.,0.));
#153=DIRECTION('center_axis',(0.,0.,1.));
#154=DIRECTION('ref_axis',(-1.,0.,0.));
#155=DIRECTION('center_axis',(0.,0.,1.));
#156=DIRECTION('ref_axis',(1.,0.,0.));
#157=DIRECTION('center_axis',(0.,0.,1.));
#158=DIRECTION('ref_axis',(1.,0.,0.));
#159=DIRECTION('center_axis',(0.,0.,1.));
#160=DIRECTION('ref_axis',(-1.,0.,0.));
#161=DIRECTION('center_axis',(0.,0.,-1.));
#162=DIRECTION('ref_axis',(-1.,0.,0.));
#163=DIRECTION('center_axis',(0.,0.,1.));
#164=DIRECTION('ref_axis',(-1.,0.,0.));
#165=DIRECTION('center_axis',(0.,0.,1.));
#166=DIRECTION('ref_axis',(1.,0.,0.));
#167=DIRECTION('center_axis',(0.,0.,1.));
#168=DIRECTION('ref_axis',(1.,0.,0.));
#169=DIRECTION('center_axis',(0.,0.,1.));
#170=DIRECTION('ref_axis',(1.,0.,0.));
#171=DIRECTION('center_axis',(0.,0.,1.));
#172=DIRECTION('ref_axis',(1.,0.,0.));
#173=DIRECTION('center_axis',(0.,0.,-1.));
#174=DIRECTION('ref_axis',(1.,0.,0.));
#175=DIRECTION('center_axis',(0.,0.,1.));
#176=DIRECTION('ref_axis',(1.,0.,0.));
#177=DIRECTION('center_axis',(0.,0.,-1.));
#178=DIRECTION('ref_axis',(1.,0.,0.));
#179=DIRECTION('center_axis',(0.,0.,1.));
#180=DIRECTION('ref_axis',(1.,0.,0.));
#181=DIRECTION('center_axis',(0.,0.,1.));
#182=DIRECTION('ref_axis',(1.,0.,0.));
#183=CARTESIAN_POINT('',(0.,0.,0.));
#184=CARTESIAN_POINT('Origin',(0.,0.,0.5));
#185=CARTESIAN_POINT('',(11.75,-1.43895998899814E-15,1.));
#186=CARTESIAN_POINT('Origin',(0.,0.,1.));
#187=CARTESIAN_POINT('',(10.75,1.3164953090834E-15,0.));
#188=CARTESIAN_POINT('Origin',(0.,0.,0.));
#189=CARTESIAN_POINT('Origin',(0.,0.,0.));
#190=CARTESIAN_POINT('',(11.75,1.43895998899814E-15,25.));
#191=CARTESIAN_POINT('Origin',(0.,0.,25.));
#192=CARTESIAN_POINT('Origin',(-1.37974087809045E-15,-1.57478443209242E-16,
0.));
#193=CARTESIAN_POINT('',(-6.,7.34788079488412E-16,0.));
#194=CARTESIAN_POINT('Origin',(0.,0.,0.));
#195=CARTESIAN_POINT('Origin',(0.,0.,24.5));
#196=CARTESIAN_POINT('',(9.188,-1.12520547905659E-15,24.));
#197=CARTESIAN_POINT('Origin',(0.,0.,24.));
#198=CARTESIAN_POINT('',(10.188,1.24767015897132E-15,25.));
#199=CARTESIAN_POINT('Origin',(0.,0.,25.));
#200=CARTESIAN_POINT('Origin',(0.,0.,16.));
#201=CARTESIAN_POINT('',(9.188,0.,7.));
#202=CARTESIAN_POINT('Origin',(0.,0.,7.));
#203=CARTESIAN_POINT('Origin',(-1.37974087809045E-15,-1.57478443209242E-16,
25.));
#204=CARTESIAN_POINT('Origin',(0.,0.,-67.5));
#205=CARTESIAN_POINT('',(-6.,7.34788079488412E-16,-67.));
#206=CARTESIAN_POINT('Origin',(0.,0.,-67.));
#207=CARTESIAN_POINT('',(-5.,-6.12323399573677E-16,-68.));
#208=CARTESIAN_POINT('Origin',(0.,0.,-68.));
#209=CARTESIAN_POINT('Origin',(0.,0.,0.));
#210=CARTESIAN_POINT('Origin',(6.78022909193566E-16,1.54197642309049E-16,
-68.));
#211=CARTESIAN_POINT('Origin',(0.,0.,4.23964631618739));
#212=UNCERTAINTY_MEASURE_WITH_UNIT(LENGTH_MEASURE(0.01),#216,
'DISTANCE_ACCURACY_VALUE',
'Maximum model space distance between geometric entities at asserted c
onnectivities');
#213=UNCERTAINTY_MEASURE_WITH_UNIT(LENGTH_MEASURE(1.E-6),#216,
'DISTANCE_ACCURACY_VALUE',
'Maximum model space distance between geometric entities at asserted c
onnectivities');
#214=(
GEOMETRIC_REPRESENTATION_CONTEXT(3)
GLOBAL_UNCERTAINTY_ASSIGNED_CONTEXT((#212))
GLOBAL_UNIT_ASSIGNED_CONTEXT((#216,#219,#217))
REPRESENTATION_CONTEXT('','3D')
);
#215=(
GEOMETRIC_REPRESENTATION_CONTEXT(3)
GLOBAL_UNCERTAINTY_ASSIGNED_CONTEXT((#213))
GLOBAL_UNIT_ASSIGNED_CONTEXT((#216,#219,#217))
REPRESENTATION_CONTEXT('','3D')
);
#216=(
LENGTH_UNIT()
NAMED_UNIT(*)
SI_UNIT(.MILLI.,.METRE.)
);
#217=(
NAMED_UNIT(*)
SI_UNIT($,.STERADIAN.)
SOLID_ANGLE_UNIT()
);
#218=DIMENSIONAL_EXPONENTS(0.,0.,0.,0.,0.,0.,0.);
#219=(
CONVERSION_BASED_UNIT('degree',#221)
NAMED_UNIT(#218)
PLANE_ANGLE_UNIT()
);
#220=(
NAMED_UNIT(*)
PLANE_ANGLE_UNIT()
SI_UNIT($,.RADIAN.)
);
#221=PLANE_ANGLE_MEASURE_WITH_UNIT(PLANE_ANGLE_MEASURE(0.01745329252),#220);
#222=SHAPE_DEFINITION_REPRESENTATION(#223,#224);
#223=PRODUCT_DEFINITION_SHAPE('',$,#226);
#224=SHAPE_REPRESENTATION('',(#123),#214);
#225=PRODUCT_DEFINITION_CONTEXT('part definition',#230,'design');
#226=PRODUCT_DEFINITION('axe_porte_outil_ecrou_pince',
'axe_porte_outil_ecrou_pince',#227,#225);
#227=PRODUCT_DEFINITION_FORMATION('',$,#232);
#228=PRODUCT_RELATED_PRODUCT_CATEGORY('axe_porte_outil_ecrou_pince',
'axe_porte_outil_ecrou_pince',(#232));
#229=APPLICATION_PROTOCOL_DEFINITION('international standard',
'automotive_design',2009,#230);
#230=APPLICATION_CONTEXT(
'Core Data for Automotive Mechanical Design Process');
#231=PRODUCT_CONTEXT('part definition',#230,'mechanical');
#232=PRODUCT('axe_porte_outil_ecrou_pince',
'axe_porte_outil_ecrou_pince',$,(#231));
#233=PRESENTATION_STYLE_ASSIGNMENT((#234));
#234=SURFACE_STYLE_USAGE(.BOTH.,#235);
#235=SURFACE_SIDE_STYLE('',(#236));
#236=SURFACE_STYLE_FILL_AREA(#237);
#237=FILL_AREA_STYLE('',(#238));
#238=FILL_AREA_STYLE_COLOUR('',#239);
#239=COLOUR_RGB('',0.745098039215686,0.737254901960784,0.729411764705882);
ENDSEC;
END-ISO-10303-21;
