ISO-10303-21;
HEADER;
/* Generated by software containing ST-Developer
 * from STEP Tools, Inc. (www.steptools.com) 
 */

FILE_DESCRIPTION(
/* description */ (''),
/* implementation_level */ '2;1');

FILE_NAME(
/* name */ 
'D:\\documents\\inventor\\projets\\moto\\fourchette bequille avant tlr
2.stp',
/* time_stamp */ '2021-04-05T18:32:29+02:00',
/* author */ ('the-v'),
/* organization */ (''),
/* preprocessor_version */ 'ST-DEVELOPER v18',
/* originating_system */ 'Autodesk Inventor 2020',
/* authorisation */ '');

FILE_SCHEMA (('AUTOMOTIVE_DESIGN { 1 0 10303 214 3 1 1 }'));
ENDSEC;

DATA;
#10=MECHANICAL_DESIGN_GEOMETRIC_PRESENTATION_REPRESENTATION('',(#13),#666);
#11=SHAPE_REPRESENTATION_RELATIONSHIP('SRR','None',#673,#12);
#12=ADVANCED_BREP_SHAPE_REPRESENTATION('',(#14),#665);
#13=STYLED_ITEM('',(#682),#14);
#14=MANIFOLD_SOLID_BREP('Solide1',#394);
#15=FACE_BOUND('',#63,.T.);
#16=FACE_BOUND('',#64,.T.);
#17=FACE_BOUND('',#67,.T.);
#18=FACE_BOUND('',#68,.T.);
#19=FACE_BOUND('',#73,.T.);
#20=FACE_BOUND('',#74,.T.);
#21=FACE_BOUND('',#79,.T.);
#22=FACE_BOUND('',#80,.T.);
#23=PLANE('',#433);
#24=PLANE('',#434);
#25=PLANE('',#435);
#26=PLANE('',#436);
#27=PLANE('',#437);
#28=PLANE('',#438);
#29=PLANE('',#439);
#30=PLANE('',#440);
#31=PLANE('',#441);
#32=PLANE('',#442);
#33=PLANE('',#443);
#34=PLANE('',#444);
#35=PLANE('',#445);
#36=PLANE('',#446);
#37=FACE_OUTER_BOUND('',#56,.T.);
#38=FACE_OUTER_BOUND('',#57,.T.);
#39=FACE_OUTER_BOUND('',#58,.T.);
#40=FACE_OUTER_BOUND('',#59,.T.);
#41=FACE_OUTER_BOUND('',#60,.T.);
#42=FACE_OUTER_BOUND('',#61,.T.);
#43=FACE_OUTER_BOUND('',#62,.T.);
#44=FACE_OUTER_BOUND('',#65,.T.);
#45=FACE_OUTER_BOUND('',#66,.T.);
#46=FACE_OUTER_BOUND('',#69,.T.);
#47=FACE_OUTER_BOUND('',#70,.T.);
#48=FACE_OUTER_BOUND('',#71,.T.);
#49=FACE_OUTER_BOUND('',#72,.T.);
#50=FACE_OUTER_BOUND('',#75,.T.);
#51=FACE_OUTER_BOUND('',#76,.T.);
#52=FACE_OUTER_BOUND('',#77,.T.);
#53=FACE_OUTER_BOUND('',#78,.T.);
#54=FACE_OUTER_BOUND('',#81,.T.);
#55=FACE_OUTER_BOUND('',#82,.T.);
#56=EDGE_LOOP('',(#264,#265,#266,#267,#268));
#57=EDGE_LOOP('',(#269,#270,#271,#272,#273));
#58=EDGE_LOOP('',(#274,#275,#276,#277,#278));
#59=EDGE_LOOP('',(#279,#280,#281,#282,#283));
#60=EDGE_LOOP('',(#284,#285,#286,#287));
#61=EDGE_LOOP('',(#288,#289,#290,#291));
#62=EDGE_LOOP('',(#292,#293,#294,#295,#296,#297));
#63=EDGE_LOOP('',(#298));
#64=EDGE_LOOP('',(#299));
#65=EDGE_LOOP('',(#300,#301,#302,#303));
#66=EDGE_LOOP('',(#304,#305,#306,#307,#308,#309));
#67=EDGE_LOOP('',(#310,#311));
#68=EDGE_LOOP('',(#312,#313));
#69=EDGE_LOOP('',(#314,#315,#316,#317));
#70=EDGE_LOOP('',(#318,#319,#320,#321));
#71=EDGE_LOOP('',(#322,#323,#324,#325,#326,#327));
#72=EDGE_LOOP('',(#328,#329,#330,#331,#332,#333));
#73=EDGE_LOOP('',(#334,#335));
#74=EDGE_LOOP('',(#336,#337));
#75=EDGE_LOOP('',(#338,#339,#340,#341,#342,#343,#344,#345));
#76=EDGE_LOOP('',(#346,#347,#348,#349));
#77=EDGE_LOOP('',(#350,#351,#352,#353));
#78=EDGE_LOOP('',(#354,#355,#356,#357));
#79=EDGE_LOOP('',(#358));
#80=EDGE_LOOP('',(#359));
#81=EDGE_LOOP('',(#360,#361,#362,#363));
#82=EDGE_LOOP('',(#364,#365,#366,#367,#368,#369));
#83=LINE('',#561,#122);
#84=LINE('',#569,#123);
#85=LINE('',#577,#124);
#86=LINE('',#585,#125);
#87=LINE('',#592,#126);
#88=LINE('',#595,#127);
#89=LINE('',#598,#128);
#90=LINE('',#600,#129);
#91=LINE('',#601,#130);
#92=LINE('',#604,#131);
#93=LINE('',#606,#132);
#94=LINE('',#608,#133);
#95=LINE('',#609,#134);
#96=LINE('',#612,#135);
#97=LINE('',#614,#136);
#98=LINE('',#615,#137);
#99=LINE('',#617,#138);
#100=LINE('',#619,#139);
#101=LINE('',#620,#140);
#102=LINE('',#623,#141);
#103=LINE('',#627,#142);
#104=LINE('',#629,#143);
#105=LINE('',#631,#144);
#106=LINE('',#633,#145);
#107=LINE('',#635,#146);
#108=LINE('',#636,#147);
#109=LINE('',#639,#148);
#110=LINE('',#641,#149);
#111=LINE('',#642,#150);
#112=LINE('',#643,#151);
#113=LINE('',#646,#152);
#114=LINE('',#647,#153);
#115=LINE('',#650,#154);
#116=LINE('',#651,#155);
#117=LINE('',#654,#156);
#118=LINE('',#655,#157);
#119=LINE('',#658,#158);
#120=LINE('',#659,#159);
#121=LINE('',#661,#160);
#122=VECTOR('',#455,2.067);
#123=VECTOR('',#464,2.067);
#124=VECTOR('',#473,4.5);
#125=VECTOR('',#482,4.5);
#126=VECTOR('',#489,10.);
#127=VECTOR('',#492,10.);
#128=VECTOR('',#495,10.);
#129=VECTOR('',#496,10.);
#130=VECTOR('',#497,10.);
#131=VECTOR('',#500,10.);
#132=VECTOR('',#501,10.);
#133=VECTOR('',#502,10.);
#134=VECTOR('',#503,10.);
#135=VECTOR('',#506,10.);
#136=VECTOR('',#507,10.);
#137=VECTOR('',#508,10.);
#138=VECTOR('',#511,10.);
#139=VECTOR('',#512,10.);
#140=VECTOR('',#513,10.);
#141=VECTOR('',#518,10.);
#142=VECTOR('',#521,10.);
#143=VECTOR('',#522,10.);
#144=VECTOR('',#523,10.);
#145=VECTOR('',#524,10.);
#146=VECTOR('',#525,10.);
#147=VECTOR('',#526,10.);
#148=VECTOR('',#529,10.);
#149=VECTOR('',#530,10.);
#150=VECTOR('',#531,10.);
#151=VECTOR('',#532,10.);
#152=VECTOR('',#535,10.);
#153=VECTOR('',#536,10.);
#154=VECTOR('',#539,10.);
#155=VECTOR('',#540,10.);
#156=VECTOR('',#543,10.);
#157=VECTOR('',#544,10.);
#158=VECTOR('',#547,10.);
#159=VECTOR('',#548,10.);
#160=VECTOR('',#551,10.);
#161=CIRCLE('',#415,2.067);
#162=CIRCLE('',#416,2.067);
#163=CIRCLE('',#417,2.067);
#164=CIRCLE('',#419,2.067);
#165=CIRCLE('',#420,2.067);
#166=CIRCLE('',#421,2.067);
#167=CIRCLE('',#423,4.5);
#168=CIRCLE('',#424,4.5);
#169=CIRCLE('',#425,4.5);
#170=CIRCLE('',#427,4.5);
#171=CIRCLE('',#428,4.5);
#172=CIRCLE('',#429,4.5);
#173=CIRCLE('',#431,6.);
#174=CIRCLE('',#432,6.);
#175=VERTEX_POINT('',#556);
#176=VERTEX_POINT('',#557);
#177=VERTEX_POINT('',#560);
#178=VERTEX_POINT('',#564);
#179=VERTEX_POINT('',#565);
#180=VERTEX_POINT('',#568);
#181=VERTEX_POINT('',#572);
#182=VERTEX_POINT('',#573);
#183=VERTEX_POINT('',#576);
#184=VERTEX_POINT('',#580);
#185=VERTEX_POINT('',#581);
#186=VERTEX_POINT('',#584);
#187=VERTEX_POINT('',#588);
#188=VERTEX_POINT('',#589);
#189=VERTEX_POINT('',#591);
#190=VERTEX_POINT('',#593);
#191=VERTEX_POINT('',#597);
#192=VERTEX_POINT('',#599);
#193=VERTEX_POINT('',#603);
#194=VERTEX_POINT('',#605);
#195=VERTEX_POINT('',#607);
#196=VERTEX_POINT('',#611);
#197=VERTEX_POINT('',#613);
#198=VERTEX_POINT('',#618);
#199=VERTEX_POINT('',#625);
#200=VERTEX_POINT('',#626);
#201=VERTEX_POINT('',#628);
#202=VERTEX_POINT('',#630);
#203=VERTEX_POINT('',#632);
#204=VERTEX_POINT('',#634);
#205=VERTEX_POINT('',#638);
#206=VERTEX_POINT('',#640);
#207=VERTEX_POINT('',#645);
#208=VERTEX_POINT('',#649);
#209=VERTEX_POINT('',#653);
#210=VERTEX_POINT('',#657);
#211=EDGE_CURVE('',#175,#176,#161,.T.);
#212=EDGE_CURVE('',#176,#175,#162,.T.);
#213=EDGE_CURVE('',#176,#177,#83,.T.);
#214=EDGE_CURVE('',#177,#177,#163,.T.);
#215=EDGE_CURVE('',#178,#179,#164,.T.);
#216=EDGE_CURVE('',#179,#178,#165,.T.);
#217=EDGE_CURVE('',#179,#180,#84,.T.);
#218=EDGE_CURVE('',#180,#180,#166,.T.);
#219=EDGE_CURVE('',#181,#182,#167,.T.);
#220=EDGE_CURVE('',#182,#181,#168,.T.);
#221=EDGE_CURVE('',#182,#183,#85,.T.);
#222=EDGE_CURVE('',#183,#183,#169,.T.);
#223=EDGE_CURVE('',#184,#185,#170,.T.);
#224=EDGE_CURVE('',#185,#184,#171,.T.);
#225=EDGE_CURVE('',#185,#186,#86,.T.);
#226=EDGE_CURVE('',#186,#186,#172,.T.);
#227=EDGE_CURVE('',#187,#188,#173,.T.);
#228=EDGE_CURVE('',#188,#189,#87,.T.);
#229=EDGE_CURVE('',#189,#190,#174,.T.);
#230=EDGE_CURVE('',#190,#187,#88,.T.);
#231=EDGE_CURVE('',#188,#191,#89,.T.);
#232=EDGE_CURVE('',#192,#191,#90,.T.);
#233=EDGE_CURVE('',#189,#192,#91,.T.);
#234=EDGE_CURVE('',#187,#193,#92,.T.);
#235=EDGE_CURVE('',#194,#193,#93,.T.);
#236=EDGE_CURVE('',#194,#195,#94,.T.);
#237=EDGE_CURVE('',#191,#195,#95,.T.);
#238=EDGE_CURVE('',#196,#194,#96,.T.);
#239=EDGE_CURVE('',#196,#197,#97,.T.);
#240=EDGE_CURVE('',#195,#197,#98,.T.);
#241=EDGE_CURVE('',#197,#192,#99,.T.);
#242=EDGE_CURVE('',#198,#196,#100,.T.);
#243=EDGE_CURVE('',#198,#190,#101,.T.);
#244=EDGE_CURVE('',#198,#193,#102,.T.);
#245=EDGE_CURVE('',#199,#200,#103,.T.);
#246=EDGE_CURVE('',#200,#201,#104,.T.);
#247=EDGE_CURVE('',#201,#202,#105,.T.);
#248=EDGE_CURVE('',#202,#203,#106,.T.);
#249=EDGE_CURVE('',#203,#204,#107,.T.);
#250=EDGE_CURVE('',#204,#199,#108,.T.);
#251=EDGE_CURVE('',#205,#200,#109,.T.);
#252=EDGE_CURVE('',#206,#205,#110,.T.);
#253=EDGE_CURVE('',#193,#206,#111,.T.);
#254=EDGE_CURVE('',#201,#198,#112,.T.);
#255=EDGE_CURVE('',#207,#206,#113,.T.);
#256=EDGE_CURVE('',#202,#207,#114,.T.);
#257=EDGE_CURVE('',#208,#207,#115,.T.);
#258=EDGE_CURVE('',#203,#208,#116,.T.);
#259=EDGE_CURVE('',#209,#208,#117,.T.);
#260=EDGE_CURVE('',#204,#209,#118,.T.);
#261=EDGE_CURVE('',#210,#209,#119,.T.);
#262=EDGE_CURVE('',#199,#210,#120,.T.);
#263=EDGE_CURVE('',#205,#210,#121,.T.);
#264=ORIENTED_EDGE('',*,*,#211,.F.);
#265=ORIENTED_EDGE('',*,*,#212,.F.);
#266=ORIENTED_EDGE('',*,*,#213,.T.);
#267=ORIENTED_EDGE('',*,*,#214,.F.);
#268=ORIENTED_EDGE('',*,*,#213,.F.);
#269=ORIENTED_EDGE('',*,*,#215,.F.);
#270=ORIENTED_EDGE('',*,*,#216,.F.);
#271=ORIENTED_EDGE('',*,*,#217,.T.);
#272=ORIENTED_EDGE('',*,*,#218,.F.);
#273=ORIENTED_EDGE('',*,*,#217,.F.);
#274=ORIENTED_EDGE('',*,*,#219,.F.);
#275=ORIENTED_EDGE('',*,*,#220,.F.);
#276=ORIENTED_EDGE('',*,*,#221,.T.);
#277=ORIENTED_EDGE('',*,*,#222,.F.);
#278=ORIENTED_EDGE('',*,*,#221,.F.);
#279=ORIENTED_EDGE('',*,*,#223,.F.);
#280=ORIENTED_EDGE('',*,*,#224,.F.);
#281=ORIENTED_EDGE('',*,*,#225,.T.);
#282=ORIENTED_EDGE('',*,*,#226,.F.);
#283=ORIENTED_EDGE('',*,*,#225,.F.);
#284=ORIENTED_EDGE('',*,*,#227,.T.);
#285=ORIENTED_EDGE('',*,*,#228,.T.);
#286=ORIENTED_EDGE('',*,*,#229,.T.);
#287=ORIENTED_EDGE('',*,*,#230,.T.);
#288=ORIENTED_EDGE('',*,*,#228,.F.);
#289=ORIENTED_EDGE('',*,*,#231,.T.);
#290=ORIENTED_EDGE('',*,*,#232,.F.);
#291=ORIENTED_EDGE('',*,*,#233,.F.);
#292=ORIENTED_EDGE('',*,*,#227,.F.);
#293=ORIENTED_EDGE('',*,*,#234,.T.);
#294=ORIENTED_EDGE('',*,*,#235,.F.);
#295=ORIENTED_EDGE('',*,*,#236,.T.);
#296=ORIENTED_EDGE('',*,*,#237,.F.);
#297=ORIENTED_EDGE('',*,*,#231,.F.);
#298=ORIENTED_EDGE('',*,*,#214,.T.);
#299=ORIENTED_EDGE('',*,*,#218,.T.);
#300=ORIENTED_EDGE('',*,*,#238,.F.);
#301=ORIENTED_EDGE('',*,*,#239,.T.);
#302=ORIENTED_EDGE('',*,*,#240,.F.);
#303=ORIENTED_EDGE('',*,*,#236,.F.);
#304=ORIENTED_EDGE('',*,*,#229,.F.);
#305=ORIENTED_EDGE('',*,*,#233,.T.);
#306=ORIENTED_EDGE('',*,*,#241,.F.);
#307=ORIENTED_EDGE('',*,*,#239,.F.);
#308=ORIENTED_EDGE('',*,*,#242,.F.);
#309=ORIENTED_EDGE('',*,*,#243,.T.);
#310=ORIENTED_EDGE('',*,*,#211,.T.);
#311=ORIENTED_EDGE('',*,*,#212,.T.);
#312=ORIENTED_EDGE('',*,*,#215,.T.);
#313=ORIENTED_EDGE('',*,*,#216,.T.);
#314=ORIENTED_EDGE('',*,*,#241,.T.);
#315=ORIENTED_EDGE('',*,*,#232,.T.);
#316=ORIENTED_EDGE('',*,*,#237,.T.);
#317=ORIENTED_EDGE('',*,*,#240,.T.);
#318=ORIENTED_EDGE('',*,*,#230,.F.);
#319=ORIENTED_EDGE('',*,*,#243,.F.);
#320=ORIENTED_EDGE('',*,*,#244,.T.);
#321=ORIENTED_EDGE('',*,*,#234,.F.);
#322=ORIENTED_EDGE('',*,*,#245,.T.);
#323=ORIENTED_EDGE('',*,*,#246,.T.);
#324=ORIENTED_EDGE('',*,*,#247,.T.);
#325=ORIENTED_EDGE('',*,*,#248,.T.);
#326=ORIENTED_EDGE('',*,*,#249,.T.);
#327=ORIENTED_EDGE('',*,*,#250,.T.);
#328=ORIENTED_EDGE('',*,*,#251,.F.);
#329=ORIENTED_EDGE('',*,*,#252,.F.);
#330=ORIENTED_EDGE('',*,*,#253,.F.);
#331=ORIENTED_EDGE('',*,*,#244,.F.);
#332=ORIENTED_EDGE('',*,*,#254,.F.);
#333=ORIENTED_EDGE('',*,*,#246,.F.);
#334=ORIENTED_EDGE('',*,*,#219,.T.);
#335=ORIENTED_EDGE('',*,*,#220,.T.);
#336=ORIENTED_EDGE('',*,*,#223,.T.);
#337=ORIENTED_EDGE('',*,*,#224,.T.);
#338=ORIENTED_EDGE('',*,*,#235,.T.);
#339=ORIENTED_EDGE('',*,*,#253,.T.);
#340=ORIENTED_EDGE('',*,*,#255,.F.);
#341=ORIENTED_EDGE('',*,*,#256,.F.);
#342=ORIENTED_EDGE('',*,*,#247,.F.);
#343=ORIENTED_EDGE('',*,*,#254,.T.);
#344=ORIENTED_EDGE('',*,*,#242,.T.);
#345=ORIENTED_EDGE('',*,*,#238,.T.);
#346=ORIENTED_EDGE('',*,*,#256,.T.);
#347=ORIENTED_EDGE('',*,*,#257,.F.);
#348=ORIENTED_EDGE('',*,*,#258,.F.);
#349=ORIENTED_EDGE('',*,*,#248,.F.);
#350=ORIENTED_EDGE('',*,*,#258,.T.);
#351=ORIENTED_EDGE('',*,*,#259,.F.);
#352=ORIENTED_EDGE('',*,*,#260,.F.);
#353=ORIENTED_EDGE('',*,*,#249,.F.);
#354=ORIENTED_EDGE('',*,*,#260,.T.);
#355=ORIENTED_EDGE('',*,*,#261,.F.);
#356=ORIENTED_EDGE('',*,*,#262,.F.);
#357=ORIENTED_EDGE('',*,*,#250,.F.);
#358=ORIENTED_EDGE('',*,*,#222,.T.);
#359=ORIENTED_EDGE('',*,*,#226,.T.);
#360=ORIENTED_EDGE('',*,*,#262,.T.);
#361=ORIENTED_EDGE('',*,*,#263,.F.);
#362=ORIENTED_EDGE('',*,*,#251,.T.);
#363=ORIENTED_EDGE('',*,*,#245,.F.);
#364=ORIENTED_EDGE('',*,*,#263,.T.);
#365=ORIENTED_EDGE('',*,*,#261,.T.);
#366=ORIENTED_EDGE('',*,*,#259,.T.);
#367=ORIENTED_EDGE('',*,*,#257,.T.);
#368=ORIENTED_EDGE('',*,*,#255,.T.);
#369=ORIENTED_EDGE('',*,*,#252,.T.);
#370=CYLINDRICAL_SURFACE('',#414,2.067);
#371=CYLINDRICAL_SURFACE('',#418,2.067);
#372=CYLINDRICAL_SURFACE('',#422,4.5);
#373=CYLINDRICAL_SURFACE('',#426,4.5);
#374=CYLINDRICAL_SURFACE('',#430,6.);
#375=ADVANCED_FACE('',(#37),#370,.F.);
#376=ADVANCED_FACE('',(#38),#371,.F.);
#377=ADVANCED_FACE('',(#39),#372,.F.);
#378=ADVANCED_FACE('',(#40),#373,.F.);
#379=ADVANCED_FACE('',(#41),#374,.T.);
#380=ADVANCED_FACE('',(#42),#23,.T.);
#381=ADVANCED_FACE('',(#43,#15,#16),#24,.T.);
#382=ADVANCED_FACE('',(#44),#25,.T.);
#383=ADVANCED_FACE('',(#45,#17,#18),#26,.T.);
#384=ADVANCED_FACE('',(#46),#27,.T.);
#385=ADVANCED_FACE('',(#47),#28,.F.);
#386=ADVANCED_FACE('',(#48),#29,.T.);
#387=ADVANCED_FACE('',(#49,#19,#20),#30,.T.);
#388=ADVANCED_FACE('',(#50),#31,.T.);
#389=ADVANCED_FACE('',(#51),#32,.T.);
#390=ADVANCED_FACE('',(#52),#33,.T.);
#391=ADVANCED_FACE('',(#53,#21,#22),#34,.T.);
#392=ADVANCED_FACE('',(#54),#35,.T.);
#393=ADVANCED_FACE('',(#55),#36,.T.);
#394=CLOSED_SHELL('',(#375,#376,#377,#378,#379,#380,#381,#382,#383,#384,
#385,#386,#387,#388,#389,#390,#391,#392,#393));
#395=DERIVED_UNIT_ELEMENT(#397,1.);
#396=DERIVED_UNIT_ELEMENT(#668,3.);
#397=(
MASS_UNIT()
NAMED_UNIT(*)
SI_UNIT($,.GRAM.)
);
#398=DERIVED_UNIT((#395,#396));
#399=MEASURE_REPRESENTATION_ITEM('density measure',
POSITIVE_RATIO_MEASURE(2.7),#398);
#400=PROPERTY_DEFINITION_REPRESENTATION(#405,#402);
#401=PROPERTY_DEFINITION_REPRESENTATION(#406,#403);
#402=REPRESENTATION('material name',(#404),#665);
#403=REPRESENTATION('density',(#399),#665);
#404=DESCRIPTIVE_REPRESENTATION_ITEM('Aluminium 6061-AHC',
'Aluminium 6061-AHC');
#405=PROPERTY_DEFINITION('material property','material name',#675);
#406=PROPERTY_DEFINITION('material property','density of part',#675);
#407=DATE_TIME_ROLE('creation_date');
#408=APPLIED_DATE_AND_TIME_ASSIGNMENT(#409,#407,(#675));
#409=DATE_AND_TIME(#410,#411);
#410=CALENDAR_DATE(2021,5,4);
#411=LOCAL_TIME(12,39,50.,#412);
#412=COORDINATED_UNIVERSAL_TIME_OFFSET(0,0,.BEHIND.);
#413=AXIS2_PLACEMENT_3D('placement',#554,#447,#448);
#414=AXIS2_PLACEMENT_3D('',#555,#449,#450);
#415=AXIS2_PLACEMENT_3D('',#558,#451,#452);
#416=AXIS2_PLACEMENT_3D('',#559,#453,#454);
#417=AXIS2_PLACEMENT_3D('',#562,#456,#457);
#418=AXIS2_PLACEMENT_3D('',#563,#458,#459);
#419=AXIS2_PLACEMENT_3D('',#566,#460,#461);
#420=AXIS2_PLACEMENT_3D('',#567,#462,#463);
#421=AXIS2_PLACEMENT_3D('',#570,#465,#466);
#422=AXIS2_PLACEMENT_3D('',#571,#467,#468);
#423=AXIS2_PLACEMENT_3D('',#574,#469,#470);
#424=AXIS2_PLACEMENT_3D('',#575,#471,#472);
#425=AXIS2_PLACEMENT_3D('',#578,#474,#475);
#426=AXIS2_PLACEMENT_3D('',#579,#476,#477);
#427=AXIS2_PLACEMENT_3D('',#582,#478,#479);
#428=AXIS2_PLACEMENT_3D('',#583,#480,#481);
#429=AXIS2_PLACEMENT_3D('',#586,#483,#484);
#430=AXIS2_PLACEMENT_3D('',#587,#485,#486);
#431=AXIS2_PLACEMENT_3D('',#590,#487,#488);
#432=AXIS2_PLACEMENT_3D('',#594,#490,#491);
#433=AXIS2_PLACEMENT_3D('',#596,#493,#494);
#434=AXIS2_PLACEMENT_3D('',#602,#498,#499);
#435=AXIS2_PLACEMENT_3D('',#610,#504,#505);
#436=AXIS2_PLACEMENT_3D('',#616,#509,#510);
#437=AXIS2_PLACEMENT_3D('',#621,#514,#515);
#438=AXIS2_PLACEMENT_3D('',#622,#516,#517);
#439=AXIS2_PLACEMENT_3D('',#624,#519,#520);
#440=AXIS2_PLACEMENT_3D('',#637,#527,#528);
#441=AXIS2_PLACEMENT_3D('',#644,#533,#534);
#442=AXIS2_PLACEMENT_3D('',#648,#537,#538);
#443=AXIS2_PLACEMENT_3D('',#652,#541,#542);
#444=AXIS2_PLACEMENT_3D('',#656,#545,#546);
#445=AXIS2_PLACEMENT_3D('',#660,#549,#550);
#446=AXIS2_PLACEMENT_3D('',#662,#552,#553);
#447=DIRECTION('axis',(0.,0.,1.));
#448=DIRECTION('refdir',(1.,0.,0.));
#449=DIRECTION('center_axis',(1.11022302462516E-16,0.,-1.));
#450=DIRECTION('ref_axis',(-1.,0.,-1.11022302462516E-16));
#451=DIRECTION('center_axis',(-1.11022302462516E-16,0.,1.));
#452=DIRECTION('ref_axis',(-1.,0.,-1.11022302462516E-16));
#453=DIRECTION('center_axis',(-1.11022302462516E-16,0.,1.));
#454=DIRECTION('ref_axis',(-1.,0.,-1.11022302462516E-16));
#455=DIRECTION('',(-1.11022302462516E-16,0.,1.));
#456=DIRECTION('center_axis',(0.,0.,-1.));
#457=DIRECTION('ref_axis',(-1.,0.,-1.11022302462516E-16));
#458=DIRECTION('center_axis',(1.11022302462516E-16,0.,-1.));
#459=DIRECTION('ref_axis',(-1.,0.,-1.11022302462516E-16));
#460=DIRECTION('center_axis',(-1.11022302462516E-16,0.,1.));
#461=DIRECTION('ref_axis',(-1.,0.,-1.11022302462516E-16));
#462=DIRECTION('center_axis',(-1.11022302462516E-16,0.,1.));
#463=DIRECTION('ref_axis',(-1.,0.,-1.11022302462516E-16));
#464=DIRECTION('',(-1.11022302462516E-16,0.,1.));
#465=DIRECTION('center_axis',(0.,0.,-1.));
#466=DIRECTION('ref_axis',(-1.,0.,-1.11022302462516E-16));
#467=DIRECTION('center_axis',(-1.,0.,0.));
#468=DIRECTION('ref_axis',(0.,0.,-1.));
#469=DIRECTION('center_axis',(-1.,0.,0.));
#470=DIRECTION('ref_axis',(0.,0.,-1.));
#471=DIRECTION('center_axis',(-1.,0.,0.));
#472=DIRECTION('ref_axis',(0.,0.,-1.));
#473=DIRECTION('',(-1.,0.,0.));
#474=DIRECTION('center_axis',(1.,0.,0.));
#475=DIRECTION('ref_axis',(0.,0.,-1.));
#476=DIRECTION('center_axis',(-1.,0.,0.));
#477=DIRECTION('ref_axis',(0.,0.,-1.));
#478=DIRECTION('center_axis',(-1.,0.,0.));
#479=DIRECTION('ref_axis',(0.,0.,-1.));
#480=DIRECTION('center_axis',(-1.,0.,0.));
#481=DIRECTION('ref_axis',(0.,0.,-1.));
#482=DIRECTION('',(-1.,0.,0.));
#483=DIRECTION('center_axis',(1.,0.,0.));
#484=DIRECTION('ref_axis',(0.,0.,-1.));
#485=DIRECTION('center_axis',(0.,0.,1.));
#486=DIRECTION('ref_axis',(0.707106781186547,0.707106781186548,0.));
#487=DIRECTION('center_axis',(0.,0.,-1.));
#488=DIRECTION('ref_axis',(0.707106781186547,0.707106781186548,0.));
#489=DIRECTION('',(0.,0.,-1.));
#490=DIRECTION('center_axis',(-1.11022302462516E-16,0.,1.));
#491=DIRECTION('ref_axis',(0.707106781186547,0.707106781186548,0.));
#492=DIRECTION('',(0.,0.,1.));
#493=DIRECTION('center_axis',(1.,0.,0.));
#494=DIRECTION('ref_axis',(0.,0.,1.));
#495=DIRECTION('',(0.,-1.,0.));
#496=DIRECTION('',(0.,0.,1.));
#497=DIRECTION('',(0.,-1.,0.));
#498=DIRECTION('center_axis',(0.,0.,1.));
#499=DIRECTION('ref_axis',(-1.,0.,0.));
#500=DIRECTION('',(-1.,0.,0.));
#501=DIRECTION('',(1.,0.,0.));
#502=DIRECTION('',(0.,-1.,0.));
#503=DIRECTION('',(-1.,0.,0.));
#504=DIRECTION('center_axis',(-1.,0.,0.));
#505=DIRECTION('ref_axis',(0.,0.,-1.));
#506=DIRECTION('',(0.,0.,1.));
#507=DIRECTION('',(0.,-1.,0.));
#508=DIRECTION('',(0.,0.,-1.));
#509=DIRECTION('center_axis',(1.11022302462516E-16,0.,-1.));
#510=DIRECTION('ref_axis',(1.,0.,1.11022302462516E-16));
#511=DIRECTION('',(1.,0.,1.11022302462516E-16));
#512=DIRECTION('',(-1.,0.,-1.11022302462516E-16));
#513=DIRECTION('',(1.,0.,1.11022302462516E-16));
#514=DIRECTION('center_axis',(0.,-1.,0.));
#515=DIRECTION('ref_axis',(0.,0.,-1.));
#516=DIRECTION('center_axis',(0.,-1.,0.));
#517=DIRECTION('ref_axis',(0.,0.,-1.));
#518=DIRECTION('',(0.,0.,1.));
#519=DIRECTION('center_axis',(0.,0.,-1.));
#520=DIRECTION('ref_axis',(-1.,0.,0.));
#521=DIRECTION('',(1.,0.,0.));
#522=DIRECTION('',(0.,-1.,0.));
#523=DIRECTION('',(-1.,0.,0.));
#524=DIRECTION('',(0.,1.,0.));
#525=DIRECTION('',(1.,0.,0.));
#526=DIRECTION('',(0.,1.,0.));
#527=DIRECTION('center_axis',(1.,0.,0.));
#528=DIRECTION('ref_axis',(0.,1.,0.));
#529=DIRECTION('',(0.,0.,-1.));
#530=DIRECTION('',(0.,1.,0.));
#531=DIRECTION('',(0.,0.,1.));
#532=DIRECTION('',(0.,0.,1.));
#533=DIRECTION('center_axis',(0.,-1.,0.));
#534=DIRECTION('ref_axis',(1.,0.,0.));
#535=DIRECTION('',(1.,0.,0.));
#536=DIRECTION('',(0.,0.,1.));
#537=DIRECTION('center_axis',(-1.,0.,0.));
#538=DIRECTION('ref_axis',(0.,-1.,0.));
#539=DIRECTION('',(0.,-1.,0.));
#540=DIRECTION('',(0.,0.,1.));
#541=DIRECTION('center_axis',(0.,1.,0.));
#542=DIRECTION('ref_axis',(-1.,0.,0.));
#543=DIRECTION('',(-1.,0.,0.));
#544=DIRECTION('',(0.,0.,1.));
#545=DIRECTION('center_axis',(-1.,0.,0.));
#546=DIRECTION('ref_axis',(0.,-1.,0.));
#547=DIRECTION('',(0.,-1.,0.));
#548=DIRECTION('',(0.,0.,1.));
#549=DIRECTION('center_axis',(0.,1.,0.));
#550=DIRECTION('ref_axis',(-1.,0.,0.));
#551=DIRECTION('',(-1.,0.,0.));
#552=DIRECTION('center_axis',(0.,0.,1.));
#553=DIRECTION('ref_axis',(1.,0.,0.));
#554=CARTESIAN_POINT('',(0.,0.,0.));
#555=CARTESIAN_POINT('Origin',(17.8743182692129,-7.5,69.281133548787));
#556=CARTESIAN_POINT('',(15.8073182692129,-7.5,-2.));
#557=CARTESIAN_POINT('',(19.9413182692129,-7.5,-1.99999999999999));
#558=CARTESIAN_POINT('Origin',(17.8743182692129,-7.5,-2.));
#559=CARTESIAN_POINT('Origin',(17.8743182692129,-7.5,-2.));
#560=CARTESIAN_POINT('',(19.9413182692129,-7.5,2.));
#561=CARTESIAN_POINT('',(19.9413182692129,-7.5,69.281133548787));
#562=CARTESIAN_POINT('Origin',(17.8743182692129,-7.5,2.));
#563=CARTESIAN_POINT('Origin',(-2.12568173078707,-7.5,69.281133548787));
#564=CARTESIAN_POINT('',(-4.19268173078706,-7.5,-2.));
#565=CARTESIAN_POINT('',(-0.0586817307870612,-7.5,-2.));
#566=CARTESIAN_POINT('Origin',(-2.12568173078706,-7.5,-2.));
#567=CARTESIAN_POINT('Origin',(-2.12568173078706,-7.5,-2.));
#568=CARTESIAN_POINT('',(-0.0586817307870616,-7.5,2.));
#569=CARTESIAN_POINT('',(-0.0586817307870691,-7.5,69.281133548787));
#570=CARTESIAN_POINT('Origin',(-2.12568173078706,-7.5,2.));
#571=CARTESIAN_POINT('Origin',(20.8743182692129,12.5,-10.5));
#572=CARTESIAN_POINT('',(20.8743182692129,12.5,-15.));
#573=CARTESIAN_POINT('',(20.8743182692129,12.5,-6.));
#574=CARTESIAN_POINT('Origin',(20.8743182692129,12.5,-10.5));
#575=CARTESIAN_POINT('Origin',(20.8743182692129,12.5,-10.5));
#576=CARTESIAN_POINT('',(16.8743182692129,12.5,-6.));
#577=CARTESIAN_POINT('',(20.8743182692129,12.5,-6.));
#578=CARTESIAN_POINT('Origin',(16.8743182692129,12.5,-10.5));
#579=CARTESIAN_POINT('Origin',(20.8743182692129,12.5,10.5));
#580=CARTESIAN_POINT('',(20.8743182692129,12.5,6.));
#581=CARTESIAN_POINT('',(20.8743182692129,12.5,15.));
#582=CARTESIAN_POINT('Origin',(20.8743182692129,12.5,10.5));
#583=CARTESIAN_POINT('Origin',(20.8743182692129,12.5,10.5));
#584=CARTESIAN_POINT('',(16.8743182692129,12.5,15.));
#585=CARTESIAN_POINT('',(20.8743182692129,12.5,15.));
#586=CARTESIAN_POINT('Origin',(16.8743182692129,12.5,10.5));
#587=CARTESIAN_POINT('Origin',(21.8743182692129,-6.,-0.999999999999996));
#588=CARTESIAN_POINT('',(21.8743182692129,0.,2.));
#589=CARTESIAN_POINT('',(27.8743182692129,-6.,2.));
#590=CARTESIAN_POINT('Origin',(21.8743182692129,-6.,2.));
#591=CARTESIAN_POINT('',(27.8743182692129,-6.,-2.));
#592=CARTESIAN_POINT('',(27.8743182692129,-6.,-0.999999999999996));
#593=CARTESIAN_POINT('',(21.8743182692129,0.,-2.));
#594=CARTESIAN_POINT('Origin',(21.8743182692129,-6.,-2.));
#595=CARTESIAN_POINT('',(21.8743182692129,0.,-0.999999999999996));
#596=CARTESIAN_POINT('Origin',(27.8743182692129,0.,-2.));
#597=CARTESIAN_POINT('',(27.8743182692129,-15.,2.));
#598=CARTESIAN_POINT('',(27.8743182692129,0.,2.));
#599=CARTESIAN_POINT('',(27.8743182692129,-15.,-2.));
#600=CARTESIAN_POINT('',(27.8743182692129,-15.,-2.));
#601=CARTESIAN_POINT('',(27.8743182692129,0.,-2.));
#602=CARTESIAN_POINT('Origin',(27.8743182692129,0.,2.));
#603=CARTESIAN_POINT('',(20.8743182692129,0.,2.));
#604=CARTESIAN_POINT('',(27.8743182692129,0.,2.));
#605=CARTESIAN_POINT('',(-12.1256817307871,0.,2.));
#606=CARTESIAN_POINT('',(4.87431826921294,0.,2.));
#607=CARTESIAN_POINT('',(-12.1256817307871,-15.,2.));
#608=CARTESIAN_POINT('',(-12.1256817307871,0.,2.));
#609=CARTESIAN_POINT('',(27.8743182692129,-15.,2.));
#610=CARTESIAN_POINT('Origin',(-12.1256817307871,0.,2.));
#611=CARTESIAN_POINT('',(-12.1256817307871,0.,-2.));
#612=CARTESIAN_POINT('',(-12.1256817307871,0.,1.));
#613=CARTESIAN_POINT('',(-12.1256817307871,-15.,-2.));
#614=CARTESIAN_POINT('',(-12.1256817307871,0.,-2.));
#615=CARTESIAN_POINT('',(-12.1256817307871,-15.,2.));
#616=CARTESIAN_POINT('Origin',(-12.1256817307871,0.,-2.));
#617=CARTESIAN_POINT('',(-12.1256817307871,-15.,-2.));
#618=CARTESIAN_POINT('',(20.8743182692129,0.,-2.));
#619=CARTESIAN_POINT('',(-15.1256817307871,0.,-2.));
#620=CARTESIAN_POINT('',(-12.1256817307871,0.,-2.));
#621=CARTESIAN_POINT('Origin',(7.87431826921294,-15.,2.22044604925031E-15));
#622=CARTESIAN_POINT('Origin',(7.87431826921294,0.,2.22044604925031E-15));
#623=CARTESIAN_POINT('',(20.8743182692129,0.,0.));
#624=CARTESIAN_POINT('Origin',(1.37431826921294,12.,-19.));
#625=CARTESIAN_POINT('',(16.8743182692129,24.,-19.));
#626=CARTESIAN_POINT('',(20.8743182692129,24.,-19.));
#627=CARTESIAN_POINT('',(20.8743182692129,24.,-19.));
#628=CARTESIAN_POINT('',(20.8743182692129,0.,-19.));
#629=CARTESIAN_POINT('',(20.8743182692129,0.,-19.));
#630=CARTESIAN_POINT('',(-18.1256817307871,0.,-19.));
#631=CARTESIAN_POINT('',(-18.1256817307871,0.,-19.));
#632=CARTESIAN_POINT('',(-18.1256817307871,4.,-19.));
#633=CARTESIAN_POINT('',(-18.1256817307871,4.,-19.));
#634=CARTESIAN_POINT('',(16.8743182692129,4.,-19.));
#635=CARTESIAN_POINT('',(16.8743182692129,4.,-19.));
#636=CARTESIAN_POINT('',(16.8743182692129,24.,-19.));
#637=CARTESIAN_POINT('Origin',(20.8743182692129,0.,0.));
#638=CARTESIAN_POINT('',(20.8743182692129,24.,19.));
#639=CARTESIAN_POINT('',(20.8743182692129,24.,0.));
#640=CARTESIAN_POINT('',(20.8743182692129,0.,19.));
#641=CARTESIAN_POINT('',(20.8743182692129,0.,19.));
#642=CARTESIAN_POINT('',(20.8743182692129,0.,0.));
#643=CARTESIAN_POINT('',(20.8743182692129,0.,0.));
#644=CARTESIAN_POINT('Origin',(-18.1256817307871,0.,0.));
#645=CARTESIAN_POINT('',(-18.1256817307871,0.,19.));
#646=CARTESIAN_POINT('',(-18.1256817307871,0.,19.));
#647=CARTESIAN_POINT('',(-18.1256817307871,0.,0.));
#648=CARTESIAN_POINT('Origin',(-18.1256817307871,4.,0.));
#649=CARTESIAN_POINT('',(-18.1256817307871,4.,19.));
#650=CARTESIAN_POINT('',(-18.1256817307871,4.,19.));
#651=CARTESIAN_POINT('',(-18.1256817307871,4.,0.));
#652=CARTESIAN_POINT('Origin',(16.8743182692129,4.,0.));
#653=CARTESIAN_POINT('',(16.8743182692129,4.,19.));
#654=CARTESIAN_POINT('',(16.8743182692129,4.,19.));
#655=CARTESIAN_POINT('',(16.8743182692129,4.,0.));
#656=CARTESIAN_POINT('Origin',(16.8743182692129,24.,0.));
#657=CARTESIAN_POINT('',(16.8743182692129,24.,19.));
#658=CARTESIAN_POINT('',(16.8743182692129,24.,19.));
#659=CARTESIAN_POINT('',(16.8743182692129,24.,0.));
#660=CARTESIAN_POINT('Origin',(20.8743182692129,24.,0.));
#661=CARTESIAN_POINT('',(20.8743182692129,24.,19.));
#662=CARTESIAN_POINT('Origin',(1.37431826921294,12.,19.));
#663=UNCERTAINTY_MEASURE_WITH_UNIT(LENGTH_MEASURE(0.01),#667,
'DISTANCE_ACCURACY_VALUE',
'Maximum model space distance between geometric entities at asserted c
onnectivities');
#664=UNCERTAINTY_MEASURE_WITH_UNIT(LENGTH_MEASURE(0.01),#667,
'DISTANCE_ACCURACY_VALUE',
'Maximum model space distance between geometric entities at asserted c
onnectivities');
#665=(
GEOMETRIC_REPRESENTATION_CONTEXT(3)
GLOBAL_UNCERTAINTY_ASSIGNED_CONTEXT((#663))
GLOBAL_UNIT_ASSIGNED_CONTEXT((#667,#669,#670))
REPRESENTATION_CONTEXT('','3D')
);
#666=(
GEOMETRIC_REPRESENTATION_CONTEXT(3)
GLOBAL_UNCERTAINTY_ASSIGNED_CONTEXT((#664))
GLOBAL_UNIT_ASSIGNED_CONTEXT((#667,#669,#670))
REPRESENTATION_CONTEXT('','3D')
);
#667=(
LENGTH_UNIT()
NAMED_UNIT(*)
SI_UNIT(.MILLI.,.METRE.)
);
#668=(
LENGTH_UNIT()
NAMED_UNIT(*)
SI_UNIT(.CENTI.,.METRE.)
);
#669=(
NAMED_UNIT(*)
PLANE_ANGLE_UNIT()
SI_UNIT($,.RADIAN.)
);
#670=(
NAMED_UNIT(*)
SI_UNIT($,.STERADIAN.)
SOLID_ANGLE_UNIT()
);
#671=SHAPE_DEFINITION_REPRESENTATION(#672,#673);
#672=PRODUCT_DEFINITION_SHAPE('',$,#675);
#673=SHAPE_REPRESENTATION('',(#413),#665);
#674=PRODUCT_DEFINITION_CONTEXT('part definition',#679,'design');
#675=PRODUCT_DEFINITION('fourchette bequille avant tlr',
'fourchette bequille avant tlr',#676,#674);
#676=PRODUCT_DEFINITION_FORMATION('',$,#681);
#677=PRODUCT_RELATED_PRODUCT_CATEGORY('fourchette bequille avant tlr',
'fourchette bequille avant tlr',(#681));
#678=APPLICATION_PROTOCOL_DEFINITION('international standard',
'automotive_design',2009,#679);
#679=APPLICATION_CONTEXT(
'Core Data for Automotive Mechanical Design Process');
#680=PRODUCT_CONTEXT('part definition',#679,'mechanical');
#681=PRODUCT('fourchette bequille avant tlr',
'fourchette bequille avant tlr',$,(#680));
#682=PRESENTATION_STYLE_ASSIGNMENT((#683));
#683=SURFACE_STYLE_USAGE(.BOTH.,#686);
#684=SURFACE_STYLE_RENDERING_WITH_PROPERTIES($,#690,(#685));
#685=SURFACE_STYLE_TRANSPARENT(0.);
#686=SURFACE_SIDE_STYLE('',(#687,#684));
#687=SURFACE_STYLE_FILL_AREA(#688);
#688=FILL_AREA_STYLE('',(#689));
#689=FILL_AREA_STYLE_COLOUR('',#690);
#690=COLOUR_RGB('',0.956862745098039,0.956862745098039,0.956862745098039);
ENDSEC;
END-ISO-10303-21;
