ISO-10303-21;
HEADER;
/* Generated by software containing ST-Developer
 * from STEP Tools, Inc. (www.steptools.com) 
 */

FILE_DESCRIPTION(
/* description */ (''),
/* implementation_level */ '2;1');

FILE_NAME(
/* name */ 
'C:/Users/Clos des Auges/Desktop/ALPHA/Molette de lentille.step',
/* time_stamp */ '2021-03-26T19:16:08+01:00',
/* author */ (''),
/* organization */ (''),
/* preprocessor_version */ 'ST-DEVELOPER v18.1',
/* originating_system */ 'Autodesk Translation Framework v9.10.0.1330',

/* authorisation */ '');

FILE_SCHEMA (('AUTOMOTIVE_DESIGN { 1 0 10303 214 3 1 1 }'));
ENDSEC;

DATA;
#10=MECHANICAL_DESIGN_GEOMETRIC_PRESENTATION_REPRESENTATION('',(#13),#340);
#11=SHAPE_REPRESENTATION_RELATIONSHIP('SRR','None',#347,#12);
#12=ADVANCED_BREP_SHAPE_REPRESENTATION('',(#14),#339);
#13=STYLED_ITEM('',(#356),#14);
#14=MANIFOLD_SOLID_BREP('Corps1',#184);
#15=CYLINDRICAL_SURFACE('',#204,2.5);
#16=CYLINDRICAL_SURFACE('',#208,4.);
#17=CYLINDRICAL_SURFACE('',#213,3.);
#18=CYLINDRICAL_SURFACE('',#223,1.2645);
#19=FACE_BOUND('',#39,.T.);
#20=FACE_BOUND('',#46,.T.);
#21=FACE_BOUND('',#49,.T.);
#22=PLANE('',#202);
#23=PLANE('',#215);
#24=PLANE('',#220);
#25=FACE_OUTER_BOUND('',#37,.T.);
#26=FACE_OUTER_BOUND('',#38,.T.);
#27=FACE_OUTER_BOUND('',#40,.T.);
#28=FACE_OUTER_BOUND('',#41,.T.);
#29=FACE_OUTER_BOUND('',#42,.T.);
#30=FACE_OUTER_BOUND('',#43,.T.);
#31=FACE_OUTER_BOUND('',#44,.T.);
#32=FACE_OUTER_BOUND('',#45,.T.);
#33=FACE_OUTER_BOUND('',#47,.T.);
#34=FACE_OUTER_BOUND('',#48,.T.);
#35=FACE_OUTER_BOUND('',#50,.T.);
#36=FACE_OUTER_BOUND('',#51,.T.);
#37=EDGE_LOOP('',(#121,#122,#123,#124,#125));
#38=EDGE_LOOP('',(#126));
#39=EDGE_LOOP('',(#127));
#40=EDGE_LOOP('',(#128,#129,#130,#131,#132));
#41=EDGE_LOOP('',(#133,#134,#135,#136));
#42=EDGE_LOOP('',(#137,#138,#139,#140));
#43=EDGE_LOOP('',(#141,#142,#143,#144));
#44=EDGE_LOOP('',(#145,#146,#147,#148));
#45=EDGE_LOOP('',(#149));
#46=EDGE_LOOP('',(#150));
#47=EDGE_LOOP('',(#151,#152,#153,#154,#155));
#48=EDGE_LOOP('',(#156));
#49=EDGE_LOOP('',(#157));
#50=EDGE_LOOP('',(#158,#159,#160,#161));
#51=EDGE_LOOP('',(#162,#163,#164,#165,#166));
#52=LINE('',#292,#61);
#53=LINE('',#301,#62);
#54=LINE('',#306,#63);
#55=LINE('',#310,#64);
#56=LINE('',#315,#65);
#57=LINE('',#319,#66);
#58=LINE('',#326,#67);
#59=LINE('',#333,#68);
#60=LINE('',#336,#69);
#61=VECTOR('',#230,2.6);
#62=VECTOR('',#241,2.5);
#63=VECTOR('',#248,3.9);
#64=VECTOR('',#253,4.);
#65=VECTOR('',#258,2.9);
#66=VECTOR('',#263,3.);
#67=VECTOR('',#272,1.25);
#68=VECTOR('',#281,1.63225);
#69=VECTOR('',#286,1.2645);
#70=CIRCLE('',#199,2.7);
#71=CIRCLE('',#200,2.5);
#72=CIRCLE('',#201,2.5);
#73=CIRCLE('',#203,3.8);
#74=CIRCLE('',#205,2.5);
#75=CIRCLE('',#207,4.);
#76=CIRCLE('',#209,4.);
#77=CIRCLE('',#211,2.8);
#78=CIRCLE('',#212,3.);
#79=CIRCLE('',#214,3.);
#80=CIRCLE('',#216,2.);
#81=CIRCLE('',#218,1.2645);
#82=CIRCLE('',#219,1.2645);
#83=CIRCLE('',#222,1.2645);
#84=VERTEX_POINT('',#289);
#85=VERTEX_POINT('',#291);
#86=VERTEX_POINT('',#293);
#87=VERTEX_POINT('',#297);
#88=VERTEX_POINT('',#300);
#89=VERTEX_POINT('',#304);
#90=VERTEX_POINT('',#308);
#91=VERTEX_POINT('',#312);
#92=VERTEX_POINT('',#314);
#93=VERTEX_POINT('',#318);
#94=VERTEX_POINT('',#322);
#95=VERTEX_POINT('',#325);
#96=VERTEX_POINT('',#327);
#97=VERTEX_POINT('',#332);
#98=EDGE_CURVE('',#84,#84,#70,.T.);
#99=EDGE_CURVE('',#84,#85,#52,.T.);
#100=EDGE_CURVE('',#85,#86,#71,.T.);
#101=EDGE_CURVE('',#86,#85,#72,.T.);
#102=EDGE_CURVE('',#87,#87,#73,.T.);
#103=EDGE_CURVE('',#86,#88,#53,.T.);
#104=EDGE_CURVE('',#88,#88,#74,.T.);
#105=EDGE_CURVE('',#89,#89,#75,.T.);
#106=EDGE_CURVE('',#89,#87,#54,.T.);
#107=EDGE_CURVE('',#90,#90,#76,.T.);
#108=EDGE_CURVE('',#90,#89,#55,.T.);
#109=EDGE_CURVE('',#91,#91,#77,.T.);
#110=EDGE_CURVE('',#91,#92,#56,.T.);
#111=EDGE_CURVE('',#92,#92,#78,.T.);
#112=EDGE_CURVE('',#92,#93,#57,.T.);
#113=EDGE_CURVE('',#93,#93,#79,.T.);
#114=EDGE_CURVE('',#94,#94,#80,.T.);
#115=EDGE_CURVE('',#88,#95,#58,.T.);
#116=EDGE_CURVE('',#96,#95,#81,.T.);
#117=EDGE_CURVE('',#95,#96,#82,.T.);
#118=EDGE_CURVE('',#94,#97,#59,.T.);
#119=EDGE_CURVE('',#97,#97,#83,.T.);
#120=EDGE_CURVE('',#97,#96,#60,.T.);
#121=ORIENTED_EDGE('',*,*,#98,.T.);
#122=ORIENTED_EDGE('',*,*,#99,.T.);
#123=ORIENTED_EDGE('',*,*,#100,.T.);
#124=ORIENTED_EDGE('',*,*,#101,.T.);
#125=ORIENTED_EDGE('',*,*,#99,.F.);
#126=ORIENTED_EDGE('',*,*,#102,.F.);
#127=ORIENTED_EDGE('',*,*,#98,.F.);
#128=ORIENTED_EDGE('',*,*,#100,.F.);
#129=ORIENTED_EDGE('',*,*,#101,.F.);
#130=ORIENTED_EDGE('',*,*,#103,.T.);
#131=ORIENTED_EDGE('',*,*,#104,.T.);
#132=ORIENTED_EDGE('',*,*,#103,.F.);
#133=ORIENTED_EDGE('',*,*,#105,.T.);
#134=ORIENTED_EDGE('',*,*,#106,.T.);
#135=ORIENTED_EDGE('',*,*,#102,.T.);
#136=ORIENTED_EDGE('',*,*,#106,.F.);
#137=ORIENTED_EDGE('',*,*,#107,.T.);
#138=ORIENTED_EDGE('',*,*,#108,.T.);
#139=ORIENTED_EDGE('',*,*,#105,.F.);
#140=ORIENTED_EDGE('',*,*,#108,.F.);
#141=ORIENTED_EDGE('',*,*,#109,.T.);
#142=ORIENTED_EDGE('',*,*,#110,.T.);
#143=ORIENTED_EDGE('',*,*,#111,.T.);
#144=ORIENTED_EDGE('',*,*,#110,.F.);
#145=ORIENTED_EDGE('',*,*,#111,.F.);
#146=ORIENTED_EDGE('',*,*,#112,.T.);
#147=ORIENTED_EDGE('',*,*,#113,.T.);
#148=ORIENTED_EDGE('',*,*,#112,.F.);
#149=ORIENTED_EDGE('',*,*,#109,.F.);
#150=ORIENTED_EDGE('',*,*,#114,.T.);
#151=ORIENTED_EDGE('',*,*,#104,.F.);
#152=ORIENTED_EDGE('',*,*,#115,.T.);
#153=ORIENTED_EDGE('',*,*,#116,.F.);
#154=ORIENTED_EDGE('',*,*,#117,.F.);
#155=ORIENTED_EDGE('',*,*,#115,.F.);
#156=ORIENTED_EDGE('',*,*,#107,.F.);
#157=ORIENTED_EDGE('',*,*,#113,.F.);
#158=ORIENTED_EDGE('',*,*,#114,.F.);
#159=ORIENTED_EDGE('',*,*,#118,.T.);
#160=ORIENTED_EDGE('',*,*,#119,.T.);
#161=ORIENTED_EDGE('',*,*,#118,.F.);
#162=ORIENTED_EDGE('',*,*,#119,.F.);
#163=ORIENTED_EDGE('',*,*,#120,.T.);
#164=ORIENTED_EDGE('',*,*,#116,.T.);
#165=ORIENTED_EDGE('',*,*,#117,.T.);
#166=ORIENTED_EDGE('',*,*,#120,.F.);
#167=CONICAL_SURFACE('',#198,2.6,0.785398163397448);
#168=CONICAL_SURFACE('',#206,3.9,0.785398163397449);
#169=CONICAL_SURFACE('',#210,2.9,0.785398163397448);
#170=CONICAL_SURFACE('',#217,1.25,1.02974425867665);
#171=CONICAL_SURFACE('',#221,1.63225,0.785398163397448);
#172=ADVANCED_FACE('',(#25),#167,.F.);
#173=ADVANCED_FACE('',(#26,#19),#22,.F.);
#174=ADVANCED_FACE('',(#27),#15,.F.);
#175=ADVANCED_FACE('',(#28),#168,.T.);
#176=ADVANCED_FACE('',(#29),#16,.T.);
#177=ADVANCED_FACE('',(#30),#169,.T.);
#178=ADVANCED_FACE('',(#31),#17,.T.);
#179=ADVANCED_FACE('',(#32,#20),#23,.T.);
#180=ADVANCED_FACE('',(#33),#170,.F.);
#181=ADVANCED_FACE('',(#34,#21),#24,.T.);
#182=ADVANCED_FACE('',(#35),#171,.F.);
#183=ADVANCED_FACE('',(#36),#18,.F.);
#184=CLOSED_SHELL('',(#172,#173,#174,#175,#176,#177,#178,#179,#180,#181,
#182,#183));
#185=DERIVED_UNIT_ELEMENT(#187,1.);
#186=DERIVED_UNIT_ELEMENT(#342,-3.);
#187=(
MASS_UNIT()
NAMED_UNIT(*)
SI_UNIT(.KILO.,.GRAM.)
);
#188=DERIVED_UNIT((#185,#186));
#189=MEASURE_REPRESENTATION_ITEM('density measure',
POSITIVE_RATIO_MEASURE(2700.),#188);
#190=PROPERTY_DEFINITION_REPRESENTATION(#195,#192);
#191=PROPERTY_DEFINITION_REPRESENTATION(#196,#193);
#192=REPRESENTATION('material name',(#194),#339);
#193=REPRESENTATION('density',(#189),#339);
#194=DESCRIPTIVE_REPRESENTATION_ITEM('Aluminium','Aluminium');
#195=PROPERTY_DEFINITION('material property','material name',#349);
#196=PROPERTY_DEFINITION('material property','density of part',#349);
#197=AXIS2_PLACEMENT_3D('placement',#287,#224,#225);
#198=AXIS2_PLACEMENT_3D('',#288,#226,#227);
#199=AXIS2_PLACEMENT_3D('',#290,#228,#229);
#200=AXIS2_PLACEMENT_3D('',#294,#231,#232);
#201=AXIS2_PLACEMENT_3D('',#295,#233,#234);
#202=AXIS2_PLACEMENT_3D('',#296,#235,#236);
#203=AXIS2_PLACEMENT_3D('',#298,#237,#238);
#204=AXIS2_PLACEMENT_3D('',#299,#239,#240);
#205=AXIS2_PLACEMENT_3D('',#302,#242,#243);
#206=AXIS2_PLACEMENT_3D('',#303,#244,#245);
#207=AXIS2_PLACEMENT_3D('',#305,#246,#247);
#208=AXIS2_PLACEMENT_3D('',#307,#249,#250);
#209=AXIS2_PLACEMENT_3D('',#309,#251,#252);
#210=AXIS2_PLACEMENT_3D('',#311,#254,#255);
#211=AXIS2_PLACEMENT_3D('',#313,#256,#257);
#212=AXIS2_PLACEMENT_3D('',#316,#259,#260);
#213=AXIS2_PLACEMENT_3D('',#317,#261,#262);
#214=AXIS2_PLACEMENT_3D('',#320,#264,#265);
#215=AXIS2_PLACEMENT_3D('',#321,#266,#267);
#216=AXIS2_PLACEMENT_3D('',#323,#268,#269);
#217=AXIS2_PLACEMENT_3D('',#324,#270,#271);
#218=AXIS2_PLACEMENT_3D('',#328,#273,#274);
#219=AXIS2_PLACEMENT_3D('',#329,#275,#276);
#220=AXIS2_PLACEMENT_3D('',#330,#277,#278);
#221=AXIS2_PLACEMENT_3D('',#331,#279,#280);
#222=AXIS2_PLACEMENT_3D('',#334,#282,#283);
#223=AXIS2_PLACEMENT_3D('',#335,#284,#285);
#224=DIRECTION('axis',(0.,0.,1.));
#225=DIRECTION('refdir',(1.,0.,0.));
#226=DIRECTION('center_axis',(0.,0.,-1.));
#227=DIRECTION('ref_axis',(1.,0.,0.));
#228=DIRECTION('center_axis',(0.,0.,-1.));
#229=DIRECTION('ref_axis',(1.,0.,0.));
#230=DIRECTION('',(0.707106781186548,-8.65956056235494E-17,0.707106781186548));
#231=DIRECTION('center_axis',(0.,0.,1.));
#232=DIRECTION('ref_axis',(1.,0.,0.));
#233=DIRECTION('center_axis',(0.,0.,1.));
#234=DIRECTION('ref_axis',(1.,0.,0.));
#235=DIRECTION('center_axis',(0.,0.,1.));
#236=DIRECTION('ref_axis',(1.,0.,0.));
#237=DIRECTION('center_axis',(0.,0.,1.));
#238=DIRECTION('ref_axis',(1.,0.,0.));
#239=DIRECTION('center_axis',(0.,0.,1.));
#240=DIRECTION('ref_axis',(-1.,0.,0.));
#241=DIRECTION('',(0.,0.,1.));
#242=DIRECTION('center_axis',(0.,0.,1.));
#243=DIRECTION('ref_axis',(-1.,0.,0.));
#244=DIRECTION('center_axis',(0.,0.,1.));
#245=DIRECTION('ref_axis',(1.,0.,0.));
#246=DIRECTION('center_axis',(0.,0.,-1.));
#247=DIRECTION('ref_axis',(1.,0.,0.));
#248=DIRECTION('',(0.707106781186548,8.65956056235494E-17,-0.707106781186547));
#249=DIRECTION('center_axis',(0.,0.,1.));
#250=DIRECTION('ref_axis',(1.,0.,0.));
#251=DIRECTION('center_axis',(0.,0.,-1.));
#252=DIRECTION('ref_axis',(1.,0.,0.));
#253=DIRECTION('',(0.,0.,-1.));
#254=DIRECTION('center_axis',(0.,0.,-1.));
#255=DIRECTION('ref_axis',(1.,0.,0.));
#256=DIRECTION('center_axis',(0.,0.,-1.));
#257=DIRECTION('ref_axis',(1.,0.,0.));
#258=DIRECTION('',(-0.707106781186547,-8.65956056235493E-17,-0.707106781186547));
#259=DIRECTION('center_axis',(0.,0.,1.));
#260=DIRECTION('ref_axis',(1.,0.,0.));
#261=DIRECTION('center_axis',(0.,0.,-1.));
#262=DIRECTION('ref_axis',(1.,0.,0.));
#263=DIRECTION('',(0.,0.,-1.));
#264=DIRECTION('center_axis',(0.,0.,1.));
#265=DIRECTION('ref_axis',(1.,0.,0.));
#266=DIRECTION('center_axis',(0.,0.,1.));
#267=DIRECTION('ref_axis',(1.,0.,0.));
#268=DIRECTION('center_axis',(0.,0.,-1.));
#269=DIRECTION('ref_axis',(1.,0.,0.));
#270=DIRECTION('center_axis',(0.,0.,-1.));
#271=DIRECTION('ref_axis',(-1.,0.,0.));
#272=DIRECTION('',(-0.857167300702112,-1.04972719113862E-16,0.515038074910054));
#273=DIRECTION('center_axis',(0.,0.,-1.));
#274=DIRECTION('ref_axis',(1.,0.,0.));
#275=DIRECTION('center_axis',(0.,0.,-1.));
#276=DIRECTION('ref_axis',(1.,0.,0.));
#277=DIRECTION('center_axis',(0.,0.,1.));
#278=DIRECTION('ref_axis',(1.,0.,0.));
#279=DIRECTION('center_axis',(0.,0.,1.));
#280=DIRECTION('ref_axis',(1.,0.,0.));
#281=DIRECTION('',(0.707106781186547,-8.65956056235493E-17,-0.707106781186548));
#282=DIRECTION('center_axis',(0.,0.,-1.));
#283=DIRECTION('ref_axis',(1.,0.,0.));
#284=DIRECTION('center_axis',(0.,0.,-1.));
#285=DIRECTION('ref_axis',(1.,0.,0.));
#286=DIRECTION('',(0.,0.,-1.));
#287=CARTESIAN_POINT('',(0.,0.,0.));
#288=CARTESIAN_POINT('Origin',(0.,0.,0.1));
#289=CARTESIAN_POINT('',(-2.7,3.30654635769785E-16,0.));
#290=CARTESIAN_POINT('Origin',(0.,0.,0.));
#291=CARTESIAN_POINT('',(-2.5,-3.06161699786838E-16,0.2));
#292=CARTESIAN_POINT('',(-2.6,3.18408167778312E-16,0.1));
#293=CARTESIAN_POINT('',(2.5,3.06161699786838E-16,0.2));
#294=CARTESIAN_POINT('Origin',(0.,0.,0.2));
#295=CARTESIAN_POINT('Origin',(0.,0.,0.2));
#296=CARTESIAN_POINT('Origin',(0.,0.,0.));
#297=CARTESIAN_POINT('',(-3.8,-4.65365783675994E-16,0.));
#298=CARTESIAN_POINT('Origin',(0.,0.,0.));
#299=CARTESIAN_POINT('Origin',(0.,0.,10.));
#300=CARTESIAN_POINT('',(2.5,3.06161699786838E-16,20.));
#301=CARTESIAN_POINT('',(2.5,3.06161699786838E-16,10.));
#302=CARTESIAN_POINT('Origin',(0.,0.,20.));
#303=CARTESIAN_POINT('Origin',(0.,0.,0.1));
#304=CARTESIAN_POINT('',(-4.,4.89858719658941E-16,0.2));
#305=CARTESIAN_POINT('Origin',(0.,0.,0.2));
#306=CARTESIAN_POINT('',(-3.9,-4.77612251667468E-16,0.1));
#307=CARTESIAN_POINT('Origin',(0.,0.,0.));
#308=CARTESIAN_POINT('',(-4.,-4.89858719658941E-16,25.));
#309=CARTESIAN_POINT('Origin',(0.,0.,25.));
#310=CARTESIAN_POINT('',(-4.,-4.89858719658941E-16,0.));
#311=CARTESIAN_POINT('Origin',(0.,0.,29.9));
#312=CARTESIAN_POINT('',(-2.8,3.42901103761259E-16,30.));
#313=CARTESIAN_POINT('Origin',(0.,0.,30.));
#314=CARTESIAN_POINT('',(-3.,-3.67394039744206E-16,29.8));
#315=CARTESIAN_POINT('',(-2.9,-3.55147571752732E-16,29.9));
#316=CARTESIAN_POINT('Origin',(0.,0.,29.8));
#317=CARTESIAN_POINT('Origin',(0.,0.,30.));
#318=CARTESIAN_POINT('',(-3.,-3.67394039744206E-16,25.));
#319=CARTESIAN_POINT('',(-3.,3.67394039744206E-16,30.));
#320=CARTESIAN_POINT('Origin',(0.,0.,25.));
#321=CARTESIAN_POINT('Origin',(0.,0.,30.));
#322=CARTESIAN_POINT('',(-2.,2.44929359829471E-16,30.));
#323=CARTESIAN_POINT('Origin',(0.,0.,30.));
#324=CARTESIAN_POINT('Origin',(0.,0.,20.7510757737845));
#325=CARTESIAN_POINT('',(1.2645,1.54856587752183E-16,20.7423632948085));
#326=CARTESIAN_POINT('',(1.25,1.53080849893419E-16,20.7510757737845));
#327=CARTESIAN_POINT('',(-1.2645,1.54856587752183E-16,20.7423632948085));
#328=CARTESIAN_POINT('Origin',(0.,0.,20.7423632948085));
#329=CARTESIAN_POINT('Origin',(0.,0.,20.7423632948085));
#330=CARTESIAN_POINT('Origin',(0.,0.,25.));
#331=CARTESIAN_POINT('Origin',(0.,0.,29.63225));
#332=CARTESIAN_POINT('',(-1.2645,1.54856587752183E-16,29.2645));
#333=CARTESIAN_POINT('',(-1.63225,1.99892973790827E-16,29.63225));
#334=CARTESIAN_POINT('Origin',(0.,0.,29.2645));
#335=CARTESIAN_POINT('Origin',(0.,0.,23.5));
#336=CARTESIAN_POINT('',(-1.2645,1.54856587752183E-16,23.5));
#337=UNCERTAINTY_MEASURE_WITH_UNIT(LENGTH_MEASURE(0.01),#341,
'DISTANCE_ACCURACY_VALUE',
'Maximum model space distance between geometric entities at asserted c
onnectivities');
#338=UNCERTAINTY_MEASURE_WITH_UNIT(LENGTH_MEASURE(0.01),#341,
'DISTANCE_ACCURACY_VALUE',
'Maximum model space distance between geometric entities at asserted c
onnectivities');
#339=(
GEOMETRIC_REPRESENTATION_CONTEXT(3)
GLOBAL_UNCERTAINTY_ASSIGNED_CONTEXT((#337))
GLOBAL_UNIT_ASSIGNED_CONTEXT((#341,#343,#344))
REPRESENTATION_CONTEXT('','3D')
);
#340=(
GEOMETRIC_REPRESENTATION_CONTEXT(3)
GLOBAL_UNCERTAINTY_ASSIGNED_CONTEXT((#338))
GLOBAL_UNIT_ASSIGNED_CONTEXT((#341,#343,#344))
REPRESENTATION_CONTEXT('','3D')
);
#341=(
LENGTH_UNIT()
NAMED_UNIT(*)
SI_UNIT(.MILLI.,.METRE.)
);
#342=(
LENGTH_UNIT()
NAMED_UNIT(*)
SI_UNIT($,.METRE.)
);
#343=(
NAMED_UNIT(*)
PLANE_ANGLE_UNIT()
SI_UNIT($,.RADIAN.)
);
#344=(
NAMED_UNIT(*)
SI_UNIT($,.STERADIAN.)
SOLID_ANGLE_UNIT()
);
#345=SHAPE_DEFINITION_REPRESENTATION(#346,#347);
#346=PRODUCT_DEFINITION_SHAPE('',$,#349);
#347=SHAPE_REPRESENTATION('',(#197),#339);
#348=PRODUCT_DEFINITION_CONTEXT('part definition',#353,'design');
#349=PRODUCT_DEFINITION('Molette de lentille','Molette de lentille v11',
#350,#348);
#350=PRODUCT_DEFINITION_FORMATION('',$,#355);
#351=PRODUCT_RELATED_PRODUCT_CATEGORY('Molette de lentille v11',
'Molette de lentille v11',(#355));
#352=APPLICATION_PROTOCOL_DEFINITION('international standard',
'automotive_design',2009,#353);
#353=APPLICATION_CONTEXT(
'Core Data for Automotive Mechanical Design Process');
#354=PRODUCT_CONTEXT('part definition',#353,'mechanical');
#355=PRODUCT('Molette de lentille','Molette de lentille v11',$,(#354));
#356=PRESENTATION_STYLE_ASSIGNMENT((#357));
#357=SURFACE_STYLE_USAGE(.BOTH.,#358);
#358=SURFACE_SIDE_STYLE('',(#359));
#359=SURFACE_STYLE_FILL_AREA(#360);
#360=FILL_AREA_STYLE('Aluminium - Satin\X\E9',(#361));
#361=FILL_AREA_STYLE_COLOUR('Aluminium - Satin\X\E9',#362);
#362=COLOUR_RGB('Aluminium - Satin\X\E9',0.96078431372549,0.96078431372549,
0.964705882352941);
ENDSEC;
END-ISO-10303-21;
