ISO-10303-21;
HEADER;
/* Generated by software containing ST-Developer
 * from STEP Tools, Inc. (www.steptools.com) 
 */

FILE_DESCRIPTION(
/* description */ (''),
/* implementation_level */ '2;1');

FILE_NAME(
/* name */ 
'/Users/Eric/Documents/Virtual Machines.localized/Partage Mac PC/Impre
ssion 3D/Fichiers CAD/Boite avance Holzmann/Fixation Petit Chariot Hol
zmann v1.step',
/* time_stamp */ '2021-04-17T11:53:03+02:00',
/* author */ (''),
/* organization */ (''),
/* preprocessor_version */ 'ST-DEVELOPER v18.1',
/* originating_system */ 'Autodesk Translation Framework v10.6.0.1341',

/* authorisation */ '');

FILE_SCHEMA (('AUTOMOTIVE_DESIGN { 1 0 10303 214 3 1 1 }'));
ENDSEC;

DATA;
#10=MECHANICAL_DESIGN_GEOMETRIC_PRESENTATION_REPRESENTATION('',(#13),#282);
#11=SHAPE_REPRESENTATION_RELATIONSHIP('SRR','None',#289,#12);
#12=ADVANCED_BREP_SHAPE_REPRESENTATION('',(#14),#281);
#13=STYLED_ITEM('',(#298),#14);
#14=MANIFOLD_SOLID_BREP('Corps1',#152);
#15=CONICAL_SURFACE('',#175,7.,0.785398163397448);
#16=CONICAL_SURFACE('',#181,7.,0.785398163397448);
#17=FACE_BOUND('',#42,.T.);
#18=(
BOUNDED_CURVE()
B_SPLINE_CURVE(2,(#242,#243,#244),.UNSPECIFIED.,.F.,.F.)
B_SPLINE_CURVE_WITH_KNOTS((3,3),(0.,0.389995730065584),.UNSPECIFIED.)
CURVE()
GEOMETRIC_REPRESENTATION_ITEM()
RATIONAL_B_SPLINE_CURVE((1.,1.03774904332554,1.))
REPRESENTATION_ITEM('')
);
#19=(
BOUNDED_CURVE()
B_SPLINE_CURVE(2,(#246,#247,#248),.UNSPECIFIED.,.F.,.F.)
B_SPLINE_CURVE_WITH_KNOTS((3,3),(0.389995730065584,0.779991460131168),
 .UNSPECIFIED.)
CURVE()
GEOMETRIC_REPRESENTATION_ITEM()
RATIONAL_B_SPLINE_CURVE((1.,1.03774904332554,1.))
REPRESENTATION_ITEM('')
);
#20=(
BOUNDED_CURVE()
B_SPLINE_CURVE(2,(#261,#262,#263),.UNSPECIFIED.,.F.,.F.)
B_SPLINE_CURVE_WITH_KNOTS((3,3),(0.,0.389995730065584),.UNSPECIFIED.)
CURVE()
GEOMETRIC_REPRESENTATION_ITEM()
RATIONAL_B_SPLINE_CURVE((1.,1.03774904332554,1.))
REPRESENTATION_ITEM('')
);
#21=(
BOUNDED_CURVE()
B_SPLINE_CURVE(2,(#264,#265,#266),.UNSPECIFIED.,.F.,.F.)
B_SPLINE_CURVE_WITH_KNOTS((3,3),(0.389995730065584,0.779991460131168),
 .UNSPECIFIED.)
CURVE()
GEOMETRIC_REPRESENTATION_ITEM()
RATIONAL_B_SPLINE_CURVE((1.,1.03774904332554,1.))
REPRESENTATION_ITEM('')
);
#22=PLANE('',#169);
#23=PLANE('',#170);
#24=PLANE('',#171);
#25=PLANE('',#172);
#26=PLANE('',#183);
#27=FACE_OUTER_BOUND('',#37,.T.);
#28=FACE_OUTER_BOUND('',#38,.T.);
#29=FACE_OUTER_BOUND('',#39,.T.);
#30=FACE_OUTER_BOUND('',#40,.T.);
#31=FACE_OUTER_BOUND('',#41,.T.);
#32=FACE_OUTER_BOUND('',#43,.T.);
#33=FACE_OUTER_BOUND('',#44,.T.);
#34=FACE_OUTER_BOUND('',#45,.T.);
#35=FACE_OUTER_BOUND('',#46,.T.);
#36=FACE_OUTER_BOUND('',#47,.T.);
#37=EDGE_LOOP('',(#101,#102,#103,#104));
#38=EDGE_LOOP('',(#105));
#39=EDGE_LOOP('',(#106,#107,#108,#109,#110));
#40=EDGE_LOOP('',(#111,#112,#113,#114,#115));
#41=EDGE_LOOP('',(#116,#117,#118,#119));
#42=EDGE_LOOP('',(#120));
#43=EDGE_LOOP('',(#121,#122,#123,#124));
#44=EDGE_LOOP('',(#125,#126,#127,#128));
#45=EDGE_LOOP('',(#129,#130,#131,#132));
#46=EDGE_LOOP('',(#133,#134,#135,#136));
#47=EDGE_LOOP('',(#137,#138));
#48=LINE('',#234,#55);
#49=LINE('',#240,#56);
#50=LINE('',#250,#57);
#51=LINE('',#251,#58);
#52=LINE('',#255,#59);
#53=LINE('',#257,#60);
#54=LINE('',#259,#61);
#55=VECTOR('',#190,3.);
#56=VECTOR('',#197,10.);
#57=VECTOR('',#198,10.);
#58=VECTOR('',#199,10.);
#59=VECTOR('',#202,10.);
#60=VECTOR('',#203,10.);
#61=VECTOR('',#204,10.);
#62=CIRCLE('',#167,2.942);
#63=CIRCLE('',#168,2.942);
#64=CIRCLE('',#173,7.5);
#65=CIRCLE('',#174,7.5);
#66=CIRCLE('',#176,6.5);
#67=CIRCLE('',#177,7.5);
#68=CIRCLE('',#180,7.5);
#69=CIRCLE('',#182,6.5);
#70=VERTEX_POINT('',#231);
#71=VERTEX_POINT('',#233);
#72=VERTEX_POINT('',#238);
#73=VERTEX_POINT('',#239);
#74=VERTEX_POINT('',#241);
#75=VERTEX_POINT('',#245);
#76=VERTEX_POINT('',#249);
#77=VERTEX_POINT('',#253);
#78=VERTEX_POINT('',#254);
#79=VERTEX_POINT('',#256);
#80=VERTEX_POINT('',#258);
#81=VERTEX_POINT('',#260);
#82=EDGE_CURVE('',#70,#70,#62,.F.);
#83=EDGE_CURVE('',#70,#71,#48,.T.);
#84=EDGE_CURVE('',#71,#71,#63,.T.);
#85=EDGE_CURVE('',#72,#73,#49,.T.);
#86=EDGE_CURVE('',#73,#74,#18,.T.);
#87=EDGE_CURVE('',#74,#75,#19,.T.);
#88=EDGE_CURVE('',#75,#76,#50,.T.);
#89=EDGE_CURVE('',#76,#72,#51,.T.);
#90=EDGE_CURVE('',#77,#78,#52,.T.);
#91=EDGE_CURVE('',#78,#79,#53,.T.);
#92=EDGE_CURVE('',#79,#80,#54,.T.);
#93=EDGE_CURVE('',#80,#81,#20,.T.);
#94=EDGE_CURVE('',#81,#77,#21,.T.);
#95=EDGE_CURVE('',#76,#79,#64,.T.);
#96=EDGE_CURVE('',#78,#72,#65,.T.);
#97=EDGE_CURVE('',#74,#81,#66,.T.);
#98=EDGE_CURVE('',#80,#75,#67,.T.);
#99=EDGE_CURVE('',#73,#77,#68,.T.);
#100=EDGE_CURVE('',#81,#74,#69,.T.);
#101=ORIENTED_EDGE('',*,*,#82,.F.);
#102=ORIENTED_EDGE('',*,*,#83,.T.);
#103=ORIENTED_EDGE('',*,*,#84,.F.);
#104=ORIENTED_EDGE('',*,*,#83,.F.);
#105=ORIENTED_EDGE('',*,*,#82,.T.);
#106=ORIENTED_EDGE('',*,*,#85,.T.);
#107=ORIENTED_EDGE('',*,*,#86,.T.);
#108=ORIENTED_EDGE('',*,*,#87,.T.);
#109=ORIENTED_EDGE('',*,*,#88,.T.);
#110=ORIENTED_EDGE('',*,*,#89,.T.);
#111=ORIENTED_EDGE('',*,*,#90,.T.);
#112=ORIENTED_EDGE('',*,*,#91,.T.);
#113=ORIENTED_EDGE('',*,*,#92,.T.);
#114=ORIENTED_EDGE('',*,*,#93,.T.);
#115=ORIENTED_EDGE('',*,*,#94,.T.);
#116=ORIENTED_EDGE('',*,*,#89,.F.);
#117=ORIENTED_EDGE('',*,*,#95,.T.);
#118=ORIENTED_EDGE('',*,*,#91,.F.);
#119=ORIENTED_EDGE('',*,*,#96,.T.);
#120=ORIENTED_EDGE('',*,*,#84,.T.);
#121=ORIENTED_EDGE('',*,*,#87,.F.);
#122=ORIENTED_EDGE('',*,*,#97,.T.);
#123=ORIENTED_EDGE('',*,*,#93,.F.);
#124=ORIENTED_EDGE('',*,*,#98,.T.);
#125=ORIENTED_EDGE('',*,*,#95,.F.);
#126=ORIENTED_EDGE('',*,*,#88,.F.);
#127=ORIENTED_EDGE('',*,*,#98,.F.);
#128=ORIENTED_EDGE('',*,*,#92,.F.);
#129=ORIENTED_EDGE('',*,*,#96,.F.);
#130=ORIENTED_EDGE('',*,*,#90,.F.);
#131=ORIENTED_EDGE('',*,*,#99,.F.);
#132=ORIENTED_EDGE('',*,*,#85,.F.);
#133=ORIENTED_EDGE('',*,*,#86,.F.);
#134=ORIENTED_EDGE('',*,*,#99,.T.);
#135=ORIENTED_EDGE('',*,*,#94,.F.);
#136=ORIENTED_EDGE('',*,*,#100,.T.);
#137=ORIENTED_EDGE('',*,*,#100,.F.);
#138=ORIENTED_EDGE('',*,*,#97,.F.);
#139=CYLINDRICAL_SURFACE('',#166,2.942);
#140=CYLINDRICAL_SURFACE('',#178,7.5);
#141=CYLINDRICAL_SURFACE('',#179,7.5);
#142=ADVANCED_FACE('',(#27),#139,.T.);
#143=ADVANCED_FACE('',(#28),#22,.T.);
#144=ADVANCED_FACE('',(#29),#23,.T.);
#145=ADVANCED_FACE('',(#30),#24,.T.);
#146=ADVANCED_FACE('',(#31,#17),#25,.T.);
#147=ADVANCED_FACE('',(#32),#15,.T.);
#148=ADVANCED_FACE('',(#33),#140,.T.);
#149=ADVANCED_FACE('',(#34),#141,.T.);
#150=ADVANCED_FACE('',(#35),#16,.T.);
#151=ADVANCED_FACE('',(#36),#26,.F.);
#152=CLOSED_SHELL('',(#142,#143,#144,#145,#146,#147,#148,#149,#150,#151));
#153=DERIVED_UNIT_ELEMENT(#155,1.);
#154=DERIVED_UNIT_ELEMENT(#284,-3.);
#155=(
MASS_UNIT()
NAMED_UNIT(*)
SI_UNIT(.KILO.,.GRAM.)
);
#156=DERIVED_UNIT((#153,#154));
#157=MEASURE_REPRESENTATION_ITEM('density measure',
POSITIVE_RATIO_MEASURE(7850.),#156);
#158=PROPERTY_DEFINITION_REPRESENTATION(#163,#160);
#159=PROPERTY_DEFINITION_REPRESENTATION(#164,#161);
#160=REPRESENTATION('material name',(#162),#281);
#161=REPRESENTATION('density',(#157),#281);
#162=DESCRIPTIVE_REPRESENTATION_ITEM('Acier','Acier');
#163=PROPERTY_DEFINITION('material property','material name',#291);
#164=PROPERTY_DEFINITION('material property','density of part',#291);
#165=AXIS2_PLACEMENT_3D('placement',#229,#184,#185);
#166=AXIS2_PLACEMENT_3D('',#230,#186,#187);
#167=AXIS2_PLACEMENT_3D('',#232,#188,#189);
#168=AXIS2_PLACEMENT_3D('',#235,#191,#192);
#169=AXIS2_PLACEMENT_3D('',#236,#193,#194);
#170=AXIS2_PLACEMENT_3D('',#237,#195,#196);
#171=AXIS2_PLACEMENT_3D('',#252,#200,#201);
#172=AXIS2_PLACEMENT_3D('',#267,#205,#206);
#173=AXIS2_PLACEMENT_3D('',#268,#207,#208);
#174=AXIS2_PLACEMENT_3D('',#269,#209,#210);
#175=AXIS2_PLACEMENT_3D('',#270,#211,#212);
#176=AXIS2_PLACEMENT_3D('',#271,#213,#214);
#177=AXIS2_PLACEMENT_3D('',#272,#215,#216);
#178=AXIS2_PLACEMENT_3D('',#273,#217,#218);
#179=AXIS2_PLACEMENT_3D('',#274,#219,#220);
#180=AXIS2_PLACEMENT_3D('',#275,#221,#222);
#181=AXIS2_PLACEMENT_3D('',#276,#223,#224);
#182=AXIS2_PLACEMENT_3D('',#277,#225,#226);
#183=AXIS2_PLACEMENT_3D('',#278,#227,#228);
#184=DIRECTION('axis',(0.,0.,1.));
#185=DIRECTION('refdir',(1.,0.,0.));
#186=DIRECTION('center_axis',(0.,0.,1.));
#187=DIRECTION('ref_axis',(-1.,0.,0.));
#188=DIRECTION('center_axis',(0.,0.,-1.));
#189=DIRECTION('ref_axis',(-1.,0.,0.));
#190=DIRECTION('',(0.,0.,-1.));
#191=DIRECTION('center_axis',(0.,0.,-1.));
#192=DIRECTION('ref_axis',(-1.,0.,0.));
#193=DIRECTION('center_axis',(0.,0.,1.));
#194=DIRECTION('ref_axis',(-1.,0.,0.));
#195=DIRECTION('center_axis',(0.,-1.,0.));
#196=DIRECTION('ref_axis',(-1.,0.,0.));
#197=DIRECTION('',(0.,0.,-1.));
#198=DIRECTION('',(0.,0.,1.));
#199=DIRECTION('',(-1.,0.,0.));
#200=DIRECTION('center_axis',(0.,1.,0.));
#201=DIRECTION('ref_axis',(1.,0.,0.));
#202=DIRECTION('',(0.,0.,1.));
#203=DIRECTION('',(1.,0.,0.));
#204=DIRECTION('',(0.,0.,-1.));
#205=DIRECTION('center_axis',(0.,0.,1.));
#206=DIRECTION('ref_axis',(1.,0.,0.));
#207=DIRECTION('center_axis',(0.,0.,1.));
#208=DIRECTION('ref_axis',(1.,0.,0.));
#209=DIRECTION('center_axis',(0.,0.,1.));
#210=DIRECTION('ref_axis',(1.,0.,0.));
#211=DIRECTION('center_axis',(0.,0.,1.));
#212=DIRECTION('ref_axis',(1.,0.,0.));
#213=DIRECTION('center_axis',(0.,0.,1.));
#214=DIRECTION('ref_axis',(1.,0.,0.));
#215=DIRECTION('center_axis',(0.,0.,-1.));
#216=DIRECTION('ref_axis',(1.,0.,0.));
#217=DIRECTION('center_axis',(0.,0.,1.));
#218=DIRECTION('ref_axis',(1.,0.,0.));
#219=DIRECTION('center_axis',(0.,0.,1.));
#220=DIRECTION('ref_axis',(-1.,1.22464679914735E-16,0.));
#221=DIRECTION('center_axis',(0.,0.,-1.));
#222=DIRECTION('ref_axis',(1.,0.,0.));
#223=DIRECTION('center_axis',(0.,0.,1.));
#224=DIRECTION('ref_axis',(-1.,-1.22464679914735E-16,0.));
#225=DIRECTION('center_axis',(0.,0.,1.));
#226=DIRECTION('ref_axis',(1.,0.,0.));
#227=DIRECTION('center_axis',(0.,0.,1.));
#228=DIRECTION('ref_axis',(1.,0.,0.));
#229=CARTESIAN_POINT('',(0.,0.,0.));
#230=CARTESIAN_POINT('Origin',(0.,0.,5.));
#231=CARTESIAN_POINT('',(2.942,-3.60291088309151E-16,27.));
#232=CARTESIAN_POINT('Origin',(0.,0.,27.));
#233=CARTESIAN_POINT('',(2.942,-3.60291088309151E-16,5.));
#234=CARTESIAN_POINT('',(2.942,3.60291088309151E-16,5.));
#235=CARTESIAN_POINT('Origin',(0.,0.,5.));
#236=CARTESIAN_POINT('Origin',(0.,0.,27.));
#237=CARTESIAN_POINT('Origin',(7.5,-6.5,5.));
#238=CARTESIAN_POINT('',(-3.74165738677394,-6.5,5.));
#239=CARTESIAN_POINT('',(-3.74165738677394,-6.5,1.));
#240=CARTESIAN_POINT('',(-3.74165738677394,-6.5,0.));
#241=CARTESIAN_POINT('',(0.,-6.5,3.46944695195361E-16));
#242=CARTESIAN_POINT('Ctrl Pts',(-3.74165738677394,-6.5,1.));
#243=CARTESIAN_POINT('Ctrl Pts',(-1.73719807243076,-6.5,4.42354486374086E-16));
#244=CARTESIAN_POINT('Ctrl Pts',(0.,-6.5,4.85722573273506E-16));
#245=CARTESIAN_POINT('',(3.74165738677394,-6.5,1.));
#246=CARTESIAN_POINT('Ctrl Pts',(0.,-6.5,4.85722573273506E-16));
#247=CARTESIAN_POINT('Ctrl Pts',(1.73719807243076,-6.5,4.42354486374086E-16));
#248=CARTESIAN_POINT('Ctrl Pts',(3.74165738677394,-6.5,1.));
#249=CARTESIAN_POINT('',(3.74165738677394,-6.5,5.));
#250=CARTESIAN_POINT('',(3.74165738677394,-6.5,0.));
#251=CARTESIAN_POINT('',(3.75,-6.5,5.));
#252=CARTESIAN_POINT('Origin',(-7.5,6.5,5.));
#253=CARTESIAN_POINT('',(-3.74165738677394,6.5,1.));
#254=CARTESIAN_POINT('',(-3.74165738677394,6.5,5.));
#255=CARTESIAN_POINT('',(-3.74165738677394,6.5,0.));
#256=CARTESIAN_POINT('',(3.74165738677394,6.5,5.));
#257=CARTESIAN_POINT('',(-3.75,6.5,5.));
#258=CARTESIAN_POINT('',(3.74165738677394,6.5,1.));
#259=CARTESIAN_POINT('',(3.74165738677394,6.5,0.));
#260=CARTESIAN_POINT('',(0.,6.5,3.46944695195361E-16));
#261=CARTESIAN_POINT('Ctrl Pts',(3.74165738677394,6.5,1.));
#262=CARTESIAN_POINT('Ctrl Pts',(1.73719807243076,6.5,4.42354486374086E-16));
#263=CARTESIAN_POINT('Ctrl Pts',(0.,6.5,4.85722573273506E-16));
#264=CARTESIAN_POINT('Ctrl Pts',(0.,6.5,4.85722573273506E-16));
#265=CARTESIAN_POINT('Ctrl Pts',(-1.73719807243076,6.5,4.42354486374086E-16));
#266=CARTESIAN_POINT('Ctrl Pts',(-3.74165738677394,6.5,1.));
#267=CARTESIAN_POINT('Origin',(0.,0.,5.));
#268=CARTESIAN_POINT('Origin',(0.,0.,5.));
#269=CARTESIAN_POINT('Origin',(0.,0.,5.));
#270=CARTESIAN_POINT('Origin',(0.,0.,0.5));
#271=CARTESIAN_POINT('Origin',(0.,0.,0.));
#272=CARTESIAN_POINT('Origin',(0.,0.,1.));
#273=CARTESIAN_POINT('Origin',(0.,0.,0.));
#274=CARTESIAN_POINT('Origin',(0.,0.,0.));
#275=CARTESIAN_POINT('Origin',(0.,0.,1.));
#276=CARTESIAN_POINT('Origin',(0.,0.,0.5));
#277=CARTESIAN_POINT('Origin',(0.,0.,0.));
#278=CARTESIAN_POINT('Origin',(0.,0.,0.));
#279=UNCERTAINTY_MEASURE_WITH_UNIT(LENGTH_MEASURE(0.01),#283,
'DISTANCE_ACCURACY_VALUE',
'Maximum model space distance between geometric entities at asserted c
onnectivities');
#280=UNCERTAINTY_MEASURE_WITH_UNIT(LENGTH_MEASURE(0.01),#283,
'DISTANCE_ACCURACY_VALUE',
'Maximum model space distance between geometric entities at asserted c
onnectivities');
#281=(
GEOMETRIC_REPRESENTATION_CONTEXT(3)
GLOBAL_UNCERTAINTY_ASSIGNED_CONTEXT((#279))
GLOBAL_UNIT_ASSIGNED_CONTEXT((#283,#285,#286))
REPRESENTATION_CONTEXT('','3D')
);
#282=(
GEOMETRIC_REPRESENTATION_CONTEXT(3)
GLOBAL_UNCERTAINTY_ASSIGNED_CONTEXT((#280))
GLOBAL_UNIT_ASSIGNED_CONTEXT((#283,#285,#286))
REPRESENTATION_CONTEXT('','3D')
);
#283=(
LENGTH_UNIT()
NAMED_UNIT(*)
SI_UNIT(.MILLI.,.METRE.)
);
#284=(
LENGTH_UNIT()
NAMED_UNIT(*)
SI_UNIT($,.METRE.)
);
#285=(
NAMED_UNIT(*)
PLANE_ANGLE_UNIT()
SI_UNIT($,.RADIAN.)
);
#286=(
NAMED_UNIT(*)
SI_UNIT($,.STERADIAN.)
SOLID_ANGLE_UNIT()
);
#287=SHAPE_DEFINITION_REPRESENTATION(#288,#289);
#288=PRODUCT_DEFINITION_SHAPE('',$,#291);
#289=SHAPE_REPRESENTATION('',(#165),#281);
#290=PRODUCT_DEFINITION_CONTEXT('part definition',#295,'design');
#291=PRODUCT_DEFINITION('Fixation Petit Chariot Holzmann',
'Fixation Petit Chariot Holzmann v1',#292,#290);
#292=PRODUCT_DEFINITION_FORMATION('',$,#297);
#293=PRODUCT_RELATED_PRODUCT_CATEGORY(
'Fixation Petit Chariot Holzmann v1',
'Fixation Petit Chariot Holzmann v1',(#297));
#294=APPLICATION_PROTOCOL_DEFINITION('international standard',
'automotive_design',2009,#295);
#295=APPLICATION_CONTEXT(
'Core Data for Automotive Mechanical Design Process');
#296=PRODUCT_CONTEXT('part definition',#295,'mechanical');
#297=PRODUCT('Fixation Petit Chariot Holzmann',
'Fixation Petit Chariot Holzmann v1',$,(#296));
#298=PRESENTATION_STYLE_ASSIGNMENT((#299));
#299=SURFACE_STYLE_USAGE(.BOTH.,#300);
#300=SURFACE_SIDE_STYLE('',(#301));
#301=SURFACE_STYLE_FILL_AREA(#302);
#302=FILL_AREA_STYLE('Acier - Satin\X\E9',(#303));
#303=FILL_AREA_STYLE_COLOUR('Acier - Satin\X\E9',#304);
#304=COLOUR_RGB('Acier - Satin\X\E9',0.627450980392157,0.627450980392157,
0.627450980392157);
ENDSEC;
END-ISO-10303-21;
