ISO-10303-21;
HEADER;
/* Generated by software containing ST-Developer
 * from STEP Tools, Inc. (www.steptools.com) 
 */

FILE_DESCRIPTION(
/* description */ (''),
/* implementation_level */ '2;1');

FILE_NAME(
/* name */ 
'C:/Users/sexpo/Desktop/configuration simu/amortisseur/tube creux od 2
0 v2.step',
/* time_stamp */ '2021-04-30T07:34:57+02:00',
/* author */ (''),
/* organization */ (''),
/* preprocessor_version */ 'ST-DEVELOPER v18.1',
/* originating_system */ 'Autodesk Translation Framework v10.6.0.1341',

/* authorisation */ '');

FILE_SCHEMA (('AUTOMOTIVE_DESIGN { 1 0 10303 214 3 1 1 }'));
ENDSEC;

DATA;
#10=MECHANICAL_DESIGN_GEOMETRIC_PRESENTATION_REPRESENTATION('',(#13),#170);
#11=SHAPE_REPRESENTATION_RELATIONSHIP('SRR','None',#177,#12);
#12=ADVANCED_BREP_SHAPE_REPRESENTATION('',(#14),#169);
#13=STYLED_ITEM('',(#186),#14);
#14=MANIFOLD_SOLID_BREP('Corps1',#90);
#15=FACE_BOUND('',#29,.T.);
#16=FACE_BOUND('',#33,.T.);
#17=FACE_BOUND('',#35,.T.);
#18=PLANE('',#107);
#19=PLANE('',#114);
#20=PLANE('',#115);
#21=FACE_OUTER_BOUND('',#27,.T.);
#22=FACE_OUTER_BOUND('',#28,.T.);
#23=FACE_OUTER_BOUND('',#30,.T.);
#24=FACE_OUTER_BOUND('',#31,.T.);
#25=FACE_OUTER_BOUND('',#32,.T.);
#26=FACE_OUTER_BOUND('',#34,.T.);
#27=EDGE_LOOP('',(#63,#64,#65,#66));
#28=EDGE_LOOP('',(#67));
#29=EDGE_LOOP('',(#68));
#30=EDGE_LOOP('',(#69,#70,#71,#72));
#31=EDGE_LOOP('',(#73,#74,#75,#76));
#32=EDGE_LOOP('',(#77));
#33=EDGE_LOOP('',(#78));
#34=EDGE_LOOP('',(#79));
#35=EDGE_LOOP('',(#80));
#36=LINE('',#150,#39);
#37=LINE('',#158,#40);
#38=LINE('',#163,#41);
#39=VECTOR('',#122,8.);
#40=VECTOR('',#133,6.);
#41=VECTOR('',#138,10.);
#42=CIRCLE('',#105,7.38965);
#43=CIRCLE('',#106,7.38965);
#44=CIRCLE('',#108,6.);
#45=CIRCLE('',#110,6.);
#46=CIRCLE('',#112,9.925);
#47=CIRCLE('',#113,9.925);
#48=VERTEX_POINT('',#147);
#49=VERTEX_POINT('',#149);
#50=VERTEX_POINT('',#153);
#51=VERTEX_POINT('',#156);
#52=VERTEX_POINT('',#160);
#53=VERTEX_POINT('',#162);
#54=EDGE_CURVE('',#48,#48,#42,.F.);
#55=EDGE_CURVE('',#48,#49,#36,.T.);
#56=EDGE_CURVE('',#49,#49,#43,.T.);
#57=EDGE_CURVE('',#50,#50,#44,.T.);
#58=EDGE_CURVE('',#51,#51,#45,.T.);
#59=EDGE_CURVE('',#51,#50,#37,.T.);
#60=EDGE_CURVE('',#52,#52,#46,.F.);
#61=EDGE_CURVE('',#52,#53,#38,.T.);
#62=EDGE_CURVE('',#53,#53,#47,.F.);
#63=ORIENTED_EDGE('',*,*,#54,.F.);
#64=ORIENTED_EDGE('',*,*,#55,.T.);
#65=ORIENTED_EDGE('',*,*,#56,.T.);
#66=ORIENTED_EDGE('',*,*,#55,.F.);
#67=ORIENTED_EDGE('',*,*,#56,.F.);
#68=ORIENTED_EDGE('',*,*,#57,.F.);
#69=ORIENTED_EDGE('',*,*,#58,.F.);
#70=ORIENTED_EDGE('',*,*,#59,.T.);
#71=ORIENTED_EDGE('',*,*,#57,.T.);
#72=ORIENTED_EDGE('',*,*,#59,.F.);
#73=ORIENTED_EDGE('',*,*,#60,.F.);
#74=ORIENTED_EDGE('',*,*,#61,.T.);
#75=ORIENTED_EDGE('',*,*,#62,.T.);
#76=ORIENTED_EDGE('',*,*,#61,.F.);
#77=ORIENTED_EDGE('',*,*,#60,.T.);
#78=ORIENTED_EDGE('',*,*,#58,.T.);
#79=ORIENTED_EDGE('',*,*,#62,.F.);
#80=ORIENTED_EDGE('',*,*,#54,.T.);
#81=CYLINDRICAL_SURFACE('',#104,7.38965);
#82=CYLINDRICAL_SURFACE('',#109,6.);
#83=CYLINDRICAL_SURFACE('',#111,9.925);
#84=ADVANCED_FACE('',(#21),#81,.F.);
#85=ADVANCED_FACE('',(#22,#15),#18,.T.);
#86=ADVANCED_FACE('',(#23),#82,.F.);
#87=ADVANCED_FACE('',(#24),#83,.T.);
#88=ADVANCED_FACE('',(#25,#16),#19,.T.);
#89=ADVANCED_FACE('',(#26,#17),#20,.F.);
#90=CLOSED_SHELL('',(#84,#85,#86,#87,#88,#89));
#91=DERIVED_UNIT_ELEMENT(#93,1.);
#92=DERIVED_UNIT_ELEMENT(#172,-3.);
#93=(
MASS_UNIT()
NAMED_UNIT(*)
SI_UNIT(.KILO.,.GRAM.)
);
#94=DERIVED_UNIT((#91,#92));
#95=MEASURE_REPRESENTATION_ITEM('density measure',
POSITIVE_RATIO_MEASURE(7850.),#94);
#96=PROPERTY_DEFINITION_REPRESENTATION(#101,#98);
#97=PROPERTY_DEFINITION_REPRESENTATION(#102,#99);
#98=REPRESENTATION('material name',(#100),#169);
#99=REPRESENTATION('density',(#95),#169);
#100=DESCRIPTIVE_REPRESENTATION_ITEM('Acier','Acier');
#101=PROPERTY_DEFINITION('material property','material name',#179);
#102=PROPERTY_DEFINITION('material property','density of part',#179);
#103=AXIS2_PLACEMENT_3D('placement',#145,#116,#117);
#104=AXIS2_PLACEMENT_3D('',#146,#118,#119);
#105=AXIS2_PLACEMENT_3D('',#148,#120,#121);
#106=AXIS2_PLACEMENT_3D('',#151,#123,#124);
#107=AXIS2_PLACEMENT_3D('',#152,#125,#126);
#108=AXIS2_PLACEMENT_3D('',#154,#127,#128);
#109=AXIS2_PLACEMENT_3D('',#155,#129,#130);
#110=AXIS2_PLACEMENT_3D('',#157,#131,#132);
#111=AXIS2_PLACEMENT_3D('',#159,#134,#135);
#112=AXIS2_PLACEMENT_3D('',#161,#136,#137);
#113=AXIS2_PLACEMENT_3D('',#164,#139,#140);
#114=AXIS2_PLACEMENT_3D('',#165,#141,#142);
#115=AXIS2_PLACEMENT_3D('',#166,#143,#144);
#116=DIRECTION('axis',(0.,0.,1.));
#117=DIRECTION('refdir',(1.,0.,0.));
#118=DIRECTION('center_axis',(1.,0.,0.));
#119=DIRECTION('ref_axis',(0.,-1.,0.));
#120=DIRECTION('center_axis',(-1.,0.,0.));
#121=DIRECTION('ref_axis',(0.,-1.,0.));
#122=DIRECTION('',(1.,0.,0.));
#123=DIRECTION('center_axis',(1.,0.,0.));
#124=DIRECTION('ref_axis',(0.,-1.,0.));
#125=DIRECTION('center_axis',(-1.,0.,0.));
#126=DIRECTION('ref_axis',(0.,-1.,0.));
#127=DIRECTION('center_axis',(-1.,0.,0.));
#128=DIRECTION('ref_axis',(0.,1.,0.));
#129=DIRECTION('center_axis',(1.,0.,0.));
#130=DIRECTION('ref_axis',(0.,1.,0.));
#131=DIRECTION('center_axis',(-1.,0.,0.));
#132=DIRECTION('ref_axis',(0.,1.,0.));
#133=DIRECTION('',(-1.,0.,0.));
#134=DIRECTION('center_axis',(1.,0.,0.));
#135=DIRECTION('ref_axis',(0.,1.,0.));
#136=DIRECTION('center_axis',(-1.,0.,0.));
#137=DIRECTION('ref_axis',(0.,1.,0.));
#138=DIRECTION('',(-1.,0.,0.));
#139=DIRECTION('center_axis',(-1.,0.,0.));
#140=DIRECTION('ref_axis',(0.,1.,0.));
#141=DIRECTION('center_axis',(1.,0.,0.));
#142=DIRECTION('ref_axis',(0.,1.,0.));
#143=DIRECTION('center_axis',(1.,0.,0.));
#144=DIRECTION('ref_axis',(0.,1.,0.));
#145=CARTESIAN_POINT('',(0.,0.,0.));
#146=CARTESIAN_POINT('Origin',(0.,0.,0.));
#147=CARTESIAN_POINT('',(0.,7.38965,-9.04971121931924E-16));
#148=CARTESIAN_POINT('Origin',(0.,0.,0.));
#149=CARTESIAN_POINT('',(20.,7.38965,9.04971121931924E-16));
#150=CARTESIAN_POINT('',(0.,7.38965,9.04971121931924E-16));
#151=CARTESIAN_POINT('Origin',(20.,0.,0.));
#152=CARTESIAN_POINT('Origin',(20.,0.,0.));
#153=CARTESIAN_POINT('',(20.,-6.,-7.34788079488412E-16));
#154=CARTESIAN_POINT('Origin',(20.,0.,0.));
#155=CARTESIAN_POINT('Origin',(0.,0.,0.));
#156=CARTESIAN_POINT('',(200.,-6.,-7.34788079488412E-16));
#157=CARTESIAN_POINT('Origin',(200.,0.,0.));
#158=CARTESIAN_POINT('',(0.,-6.,-7.34788079488412E-16));
#159=CARTESIAN_POINT('Origin',(0.,0.,0.));
#160=CARTESIAN_POINT('',(200.,-9.925,1.21546194815375E-15));
#161=CARTESIAN_POINT('Origin',(200.,0.,0.));
#162=CARTESIAN_POINT('',(0.,-9.925,1.21546194815375E-15));
#163=CARTESIAN_POINT('',(0.,-9.925,-1.21546194815375E-15));
#164=CARTESIAN_POINT('Origin',(0.,0.,0.));
#165=CARTESIAN_POINT('Origin',(200.,0.,0.));
#166=CARTESIAN_POINT('Origin',(0.,0.,0.));
#167=UNCERTAINTY_MEASURE_WITH_UNIT(LENGTH_MEASURE(0.01),#171,
'DISTANCE_ACCURACY_VALUE',
'Maximum model space distance between geometric entities at asserted c
onnectivities');
#168=UNCERTAINTY_MEASURE_WITH_UNIT(LENGTH_MEASURE(0.01),#171,
'DISTANCE_ACCURACY_VALUE',
'Maximum model space distance between geometric entities at asserted c
onnectivities');
#169=(
GEOMETRIC_REPRESENTATION_CONTEXT(3)
GLOBAL_UNCERTAINTY_ASSIGNED_CONTEXT((#167))
GLOBAL_UNIT_ASSIGNED_CONTEXT((#171,#173,#174))
REPRESENTATION_CONTEXT('','3D')
);
#170=(
GEOMETRIC_REPRESENTATION_CONTEXT(3)
GLOBAL_UNCERTAINTY_ASSIGNED_CONTEXT((#168))
GLOBAL_UNIT_ASSIGNED_CONTEXT((#171,#173,#174))
REPRESENTATION_CONTEXT('','3D')
);
#171=(
LENGTH_UNIT()
NAMED_UNIT(*)
SI_UNIT(.MILLI.,.METRE.)
);
#172=(
LENGTH_UNIT()
NAMED_UNIT(*)
SI_UNIT($,.METRE.)
);
#173=(
NAMED_UNIT(*)
PLANE_ANGLE_UNIT()
SI_UNIT($,.RADIAN.)
);
#174=(
NAMED_UNIT(*)
SI_UNIT($,.STERADIAN.)
SOLID_ANGLE_UNIT()
);
#175=SHAPE_DEFINITION_REPRESENTATION(#176,#177);
#176=PRODUCT_DEFINITION_SHAPE('',$,#179);
#177=SHAPE_REPRESENTATION('',(#103),#169);
#178=PRODUCT_DEFINITION_CONTEXT('part definition',#183,'design');
#179=PRODUCT_DEFINITION('tube creux od 20','tube creux od 20 v2',#180,#178);
#180=PRODUCT_DEFINITION_FORMATION('',$,#185);
#181=PRODUCT_RELATED_PRODUCT_CATEGORY('tube creux od 20 v2',
'tube creux od 20 v2',(#185));
#182=APPLICATION_PROTOCOL_DEFINITION('international standard',
'automotive_design',2009,#183);
#183=APPLICATION_CONTEXT(
'Core Data for Automotive Mechanical Design Process');
#184=PRODUCT_CONTEXT('part definition',#183,'mechanical');
#185=PRODUCT('tube creux od 20','tube creux od 20 v2',$,(#184));
#186=PRESENTATION_STYLE_ASSIGNMENT((#187));
#187=SURFACE_STYLE_USAGE(.BOTH.,#188);
#188=SURFACE_SIDE_STYLE('',(#189));
#189=SURFACE_STYLE_FILL_AREA(#190);
#190=FILL_AREA_STYLE('Acier - Satin\X\E9',(#191));
#191=FILL_AREA_STYLE_COLOUR('Acier - Satin\X\E9',#192);
#192=COLOUR_RGB('Acier - Satin\X\E9',0.627450980392157,0.627450980392157,
0.627450980392157);
ENDSEC;
END-ISO-10303-21;
