ISO-10303-21;
HEADER;
FILE_DESCRIPTION (( 'STEP AP214' ),
    '1' );
FILE_NAME ('PRT-ENTRETOISE-MAXIFEU.STEP',
    '2021-04-29T09:09:46',
    ( '' ),
    ( '' ),
    'SwSTEP 2.0',
    'SolidWorks 2020',
    '' );
FILE_SCHEMA (( 'AUTOMOTIVE_DESIGN' ));
ENDSEC;

DATA;
#1 =( LENGTH_UNIT ( ) NAMED_UNIT ( * ) SI_UNIT ( .MILLI., .METRE. ) );
#2 = EDGE_LOOP ( 'NONE', ( #116, #127 ) ) ;
#3 = AXIS2_PLACEMENT_3D ( 'NONE', #213, #56, #192 ) ;
#4 = ORIENTED_EDGE ( 'NONE', *, *, #53, .F. ) ;
#5 = MANIFOLD_SOLID_BREP ( 'Boss.-Extru.1', #18 ) ;
#6 = LINE ( 'NONE', #34, #114 ) ;
#7 = CARTESIAN_POINT ( 'NONE',  ( 7.960204194457796463E-16, 0.000000000000000000, 6.500000000000000888 ) ) ;
#8 = LINE ( 'NONE', #173, #145 ) ;
#9 = DIRECTION ( 'NONE',  ( 0.000000000000000000, 0.000000000000000000, 1.000000000000000000 ) ) ;
#10 = FACE_OUTER_BOUND ( 'NONE', #44, .T. ) ;
#11 = PRODUCT_CONTEXT ( 'NONE', #128, 'mechanical' ) ;
#12 = VECTOR ( 'NONE', #66, 1000.000000000000000 ) ;
#13 = FACE_OUTER_BOUND ( 'NONE', #148, .T. ) ;
#14 = DIRECTION ( 'NONE',  ( 0.000000000000000000, 0.000000000000000000, 1.000000000000000000 ) ) ;
#15 = EDGE_CURVE ( 'NONE', #121, #120, #22, .T. ) ;
#16 = VERTEX_POINT ( 'NONE', #36 ) ;
#17 = LINE ( 'NONE', #190, #72 ) ;
#18 = CLOSED_SHELL ( 'NONE', ( #31, #160, #157, #60, #136, #170 ) ) ;
#19 = VERTEX_POINT ( 'NONE', #109 ) ;
#20 = VERTEX_POINT ( 'NONE', #7 ) ;
#21 = CARTESIAN_POINT ( 'NONE',  ( 0.000000000000000000, 15.00000000000000000, 0.000000000000000000 ) ) ;
#22 = CIRCLE ( 'NONE', #164, 8.500000000000000000 ) ;
#23 = AXIS2_PLACEMENT_3D ( 'NONE', #21, #208, #82 ) ;
#24 = DIRECTION ( 'NONE',  ( 1.000000000000000000, 0.000000000000000000, 0.000000000000000000 ) ) ;
#25 =( GEOMETRIC_REPRESENTATION_CONTEXT ( 3 ) GLOBAL_UNCERTAINTY_ASSIGNED_CONTEXT ( ( #86 ) ) GLOBAL_UNIT_ASSIGNED_CONTEXT ( ( #81, #45, #99 ) ) REPRESENTATION_CONTEXT ( 'NONE', 'WORKASPACE' ) );
#26 = DIRECTION ( 'NONE',  ( 0.000000000000000000, 0.000000000000000000, 1.000000000000000000 ) ) ;
#27 = DIRECTION ( 'NONE',  ( 0.000000000000000000, 1.000000000000000000, 0.000000000000000000 ) ) ;
#28 = DIRECTION ( 'NONE',  ( 0.000000000000000000, 1.000000000000000000, 0.000000000000000000 ) ) ;
#29 = AXIS2_PLACEMENT_3D ( 'NONE', #181, #55, #130 ) ;
#30 = EDGE_LOOP ( 'NONE', ( #88, #52 ) ) ;
#31 = ADVANCED_FACE ( 'NONE', ( #152 ), #168, .F. ) ;
#32 = ORIENTED_EDGE ( 'NONE', *, *, #53, .T. ) ;
#33 = UNCERTAINTY_MEASURE_WITH_UNIT (LENGTH_MEASURE( 1.000000000000000082E-05 ), #1, 'distance_accuracy_value', 'NONE');
#34 = CARTESIAN_POINT ( 'NONE',  ( 0.000000000000000000, 15.00000000000000000, -6.500000000000000888 ) ) ;
#35 = ORIENTED_EDGE ( 'NONE', *, *, #15, .T. ) ;
#36 = CARTESIAN_POINT ( 'NONE',  ( 7.960204194457796463E-16, 15.00000000000000000, 6.500000000000000888 ) ) ;
#37 = EDGE_CURVE ( 'NONE', #188, #98, #6, .T. ) ;
#38 = CARTESIAN_POINT ( 'NONE',  ( 0.000000000000000000, 15.00000000000000000, -8.500000000000000000 ) ) ;
#39 = FILL_AREA_STYLE ('',( #178 ) ) ;
#40 = FACE_OUTER_BOUND ( 'NONE', #197, .T. ) ;
#41 =( NAMED_UNIT ( * ) PLANE_ANGLE_UNIT ( ) SI_UNIT ( $, .RADIAN. ) );
#42 = COLOUR_RGB ( '',1.000000000000000000, 1.000000000000000000, 1.000000000000000000 ) ;
#43 = DIRECTION ( 'NONE',  ( 0.000000000000000000, 0.000000000000000000, 1.000000000000000000 ) ) ;
#44 = EDGE_LOOP ( 'NONE', ( #202, #101, #135, #35 ) ) ;
#45 =( NAMED_UNIT ( * ) PLANE_ANGLE_UNIT ( ) SI_UNIT ( $, .RADIAN. ) );
#46 = EDGE_LOOP ( 'NONE', ( #67, #32, #103, #108 ) ) ;
#47 = EDGE_LOOP ( 'NONE', ( #184, #199 ) ) ;
#48 = FACE_BOUND ( 'NONE', #2, .T. ) ;
#49 = PRODUCT_DEFINITION_CONTEXT ( 'detailed design', #107, 'design' ) ;
#50 = CIRCLE ( 'NONE', #68, 8.500000000000000000 ) ;
#51 = DIRECTION ( 'NONE',  ( 0.000000000000000000, 0.000000000000000000, 1.000000000000000000 ) ) ;
#52 = ORIENTED_EDGE ( 'NONE', *, *, #214, .F. ) ;
#53 = EDGE_CURVE ( 'NONE', #16, #20, #84, .T. ) ;
#54 = CIRCLE ( 'NONE', #183, 8.500000000000000000 ) ;
#55 = DIRECTION ( 'NONE',  ( 0.000000000000000000, 1.000000000000000000, 0.000000000000000000 ) ) ;
#56 = DIRECTION ( 'NONE',  ( 0.000000000000000000, 1.000000000000000000, 0.000000000000000000 ) ) ;
#57 = CIRCLE ( 'NONE', #104, 6.500000000000000888 ) ;
#58 = COLOUR_RGB ( '',1.000000000000000000, 1.000000000000000000, 1.000000000000000000 ) ;
#59 = CARTESIAN_POINT ( 'NONE',  ( 0.000000000000000000, 0.000000000000000000, 0.000000000000000000 ) ) ;
#60 = ADVANCED_FACE ( 'NONE', ( #122, #48 ), #171, .F. ) ;
#61 = CARTESIAN_POINT ( 'NONE',  ( 1.040949779275250140E-15, 0.000000000000000000, 8.500000000000000000 ) ) ;
#62 = ORIENTED_EDGE ( 'NONE', *, *, #211, .T. ) ;
#63 = PLANE ( 'NONE',  #3 ) ;
#64 = DIRECTION ( 'NONE',  ( -0.000000000000000000, -1.000000000000000000, -0.000000000000000000 ) ) ;
#65 = ORIENTED_EDGE ( 'NONE', *, *, #37, .T. ) ;
#66 = DIRECTION ( 'NONE',  ( -0.000000000000000000, -1.000000000000000000, -0.000000000000000000 ) ) ;
#67 = ORIENTED_EDGE ( 'NONE', *, *, #201, .T. ) ;
#68 = AXIS2_PLACEMENT_3D ( 'NONE', #198, #27, #179 ) ;
#69 = DIRECTION ( 'NONE',  ( 0.000000000000000000, 0.000000000000000000, -1.000000000000000000 ) ) ;
#70 = CARTESIAN_POINT ( 'NONE',  ( 7.960204194457796463E-16, 15.00000000000000000, 6.500000000000000888 ) ) ;
#71 = CARTESIAN_POINT ( 'NONE',  ( 0.000000000000000000, 15.00000000000000000, 0.000000000000000000 ) ) ;
#72 = VECTOR ( 'NONE', #64, 1000.000000000000000 ) ;
#73 = FACE_OUTER_BOUND ( 'NONE', #189, .T. ) ;
#74 = CARTESIAN_POINT ( 'NONE',  ( 0.000000000000000000, 0.000000000000000000, 0.000000000000000000 ) ) ;
#75 = APPLICATION_PROTOCOL_DEFINITION ( 'draft international standard', 'automotive_design', 1998, #107 ) ;
#76 = SURFACE_SIDE_STYLE ('',( #113 ) ) ;
#77 = UNCERTAINTY_MEASURE_WITH_UNIT (LENGTH_MEASURE( 1.000000000000000082E-05 ), #141, 'distance_accuracy_value', 'NONE');
#78 = CIRCLE ( 'NONE', #210, 8.500000000000000000 ) ;
#79 = EDGE_CURVE ( 'NONE', #100, #121, #17, .T. ) ;
#80 = CARTESIAN_POINT ( 'NONE',  ( 0.000000000000000000, 15.00000000000000000, -6.500000000000000888 ) ) ;
#81 =( LENGTH_UNIT ( ) NAMED_UNIT ( * ) SI_UNIT ( .MILLI., .METRE. ) );
#82 = DIRECTION ( 'NONE',  ( 0.000000000000000000, 0.000000000000000000, -1.000000000000000000 ) ) ;
#83 = PRESENTATION_STYLE_ASSIGNMENT (( #89 ) ) ;
#84 = LINE ( 'NONE', #70, #12 ) ;
#85 = ORIENTED_EDGE ( 'NONE', *, *, #153, .T. ) ;
#86 = UNCERTAINTY_MEASURE_WITH_UNIT (LENGTH_MEASURE( 1.000000000000000082E-05 ), #81, 'distance_accuracy_value', 'NONE');
#87 = MECHANICAL_DESIGN_GEOMETRIC_PRESENTATION_REPRESENTATION (  '', ( #166 ), #142 ) ;
#88 = ORIENTED_EDGE ( 'NONE', *, *, #15, .F. ) ;
#89 = SURFACE_STYLE_USAGE ( .BOTH. , #206 ) ;
#90 = DIRECTION ( 'NONE',  ( -0.000000000000000000, -1.000000000000000000, -0.000000000000000000 ) ) ;
#91 = AXIS2_PLACEMENT_3D ( 'NONE', #74, #124, #26 ) ;
#92 = AXIS2_PLACEMENT_3D ( 'NONE', #187, #150, #119 ) ;
#93 = DIRECTION ( 'NONE',  ( 0.000000000000000000, 1.000000000000000000, 0.000000000000000000 ) ) ;
#94 = APPLICATION_PROTOCOL_DEFINITION ( 'draft international standard', 'automotive_design', 1998, #128 ) ;
#95 = EDGE_CURVE ( 'NONE', #16, #188, #57, .T. ) ;
#96 = CARTESIAN_POINT ( 'NONE',  ( 0.000000000000000000, 15.00000000000000000, 0.000000000000000000 ) ) ;
#97 = DIRECTION ( 'NONE',  ( 0.000000000000000000, 0.000000000000000000, 1.000000000000000000 ) ) ;
#98 = VERTEX_POINT ( 'NONE', #209 ) ;
#99 =( NAMED_UNIT ( * ) SI_UNIT ( $, .STERADIAN. ) SOLID_ANGLE_UNIT ( ) );
#100 = VERTEX_POINT ( 'NONE', #38 ) ;
#101 = ORIENTED_EDGE ( 'NONE', *, *, #211, .F. ) ;
#102 = EDGE_CURVE ( 'NONE', #98, #20, #185, .T. ) ;
#103 = ORIENTED_EDGE ( 'NONE', *, *, #102, .F. ) ;
#104 = AXIS2_PLACEMENT_3D ( 'NONE', #212, #154, #174 ) ;
#105 = ORIENTED_EDGE ( 'NONE', *, *, #214, .T. ) ;
#106 = SURFACE_STYLE_FILL_AREA ( #132 ) ;
#107 = APPLICATION_CONTEXT ( 'automotive_design' ) ;
#108 = ORIENTED_EDGE ( 'NONE', *, *, #37, .F. ) ;
#109 = CARTESIAN_POINT ( 'NONE',  ( 1.040949779275250140E-15, 15.00000000000000000, 8.500000000000000000 ) ) ;
#110 = DIRECTION ( 'NONE',  ( 0.000000000000000000, 0.000000000000000000, -1.000000000000000000 ) ) ;
#111 = STYLED_ITEM ( 'NONE', ( #83 ), #5 ) ;
#112 = CYLINDRICAL_SURFACE ( 'NONE', #203, 8.500000000000000000 ) ;
#113 = SURFACE_STYLE_FILL_AREA ( #39 ) ;
#114 = VECTOR ( 'NONE', #131, 1000.000000000000000 ) ;
#115 = CARTESIAN_POINT ( 'NONE',  ( 0.000000000000000000, 15.00000000000000000, 0.000000000000000000 ) ) ;
#116 = ORIENTED_EDGE ( 'NONE', *, *, #102, .T. ) ;
#117 = EDGE_CURVE ( 'NONE', #19, #100, #50, .T. ) ;
#118 = PRODUCT_DEFINITION ( 'UNKNOWN', '', #146, #49 ) ;
#119 = DIRECTION ( 'NONE',  ( 0.000000000000000000, -0.000000000000000000, 1.000000000000000000 ) ) ;
#120 = VERTEX_POINT ( 'NONE', #61 ) ;
#121 = VERTEX_POINT ( 'NONE', #144 ) ;
#122 = FACE_OUTER_BOUND ( 'NONE', #30, .T. ) ;
#123 = DIRECTION ( 'NONE',  ( -0.000000000000000000, -1.000000000000000000, -0.000000000000000000 ) ) ;
#124 = DIRECTION ( 'NONE',  ( 0.000000000000000000, 1.000000000000000000, 0.000000000000000000 ) ) ;
#125 = CIRCLE ( 'NONE', #29, 6.500000000000000888 ) ;
#126 = DIRECTION ( 'NONE',  ( 0.000000000000000000, 1.000000000000000000, 0.000000000000000000 ) ) ;
#127 = ORIENTED_EDGE ( 'NONE', *, *, #193, .T. ) ;
#128 = APPLICATION_CONTEXT ( 'automotive_design' ) ;
#129 = DIRECTION ( 'NONE',  ( -0.000000000000000000, -1.000000000000000000, -0.000000000000000000 ) ) ;
#130 = DIRECTION ( 'NONE',  ( 0.000000000000000000, 0.000000000000000000, 1.000000000000000000 ) ) ;
#131 = DIRECTION ( 'NONE',  ( -0.000000000000000000, -1.000000000000000000, -0.000000000000000000 ) ) ;
#132 = FILL_AREA_STYLE ('',( #151 ) ) ;
#133 = ORIENTED_EDGE ( 'NONE', *, *, #79, .F. ) ;
#134 = CARTESIAN_POINT ( 'NONE',  ( 0.000000000000000000, 0.000000000000000000, 0.000000000000000000 ) ) ;
#135 = ORIENTED_EDGE ( 'NONE', *, *, #79, .T. ) ;
#136 = ADVANCED_FACE ( 'NONE', ( #10 ), #112, .T. ) ;
#137 = CYLINDRICAL_SURFACE ( 'NONE', #23, 6.500000000000000888 ) ;
#138 = PRESENTATION_STYLE_ASSIGNMENT (( #156 ) ) ;
#139 = FACE_BOUND ( 'NONE', #47, .T. ) ;
#140 = SHAPE_DEFINITION_REPRESENTATION ( #143, #172 ) ;
#141 =( LENGTH_UNIT ( ) NAMED_UNIT ( * ) SI_UNIT ( .MILLI., .METRE. ) );
#142 =( GEOMETRIC_REPRESENTATION_CONTEXT ( 3 ) GLOBAL_UNCERTAINTY_ASSIGNED_CONTEXT ( ( #77 ) ) GLOBAL_UNIT_ASSIGNED_CONTEXT ( ( #141, #41, #175 ) ) REPRESENTATION_CONTEXT ( 'NONE', 'WORKASPACE' ) );
#143 = PRODUCT_DEFINITION_SHAPE ( 'NONE', 'NONE',  #118 ) ;
#144 = CARTESIAN_POINT ( 'NONE',  ( 0.000000000000000000, 0.000000000000000000, -8.500000000000000000 ) ) ;
#145 = VECTOR ( 'NONE', #90, 1000.000000000000000 ) ;
#146 = PRODUCT_DEFINITION_FORMATION_WITH_SPECIFIED_SOURCE ( 'ANY', '', #176, .NOT_KNOWN. ) ;
#147 = AXIS2_PLACEMENT_3D ( 'NONE', #59, #9, #24 ) ;
#148 = EDGE_LOOP ( 'NONE', ( #4, #163, #65, #180 ) ) ;
#149 = PRODUCT_RELATED_PRODUCT_CATEGORY ( 'part', '', ( #176 ) ) ;
#150 = DIRECTION ( 'NONE',  ( 0.000000000000000000, 1.000000000000000000, 0.000000000000000000 ) ) ;
#151 = FILL_AREA_STYLE_COLOUR ( '', #42 ) ;
#152 = FACE_OUTER_BOUND ( 'NONE', #46, .T. ) ;
#153 = EDGE_CURVE ( 'NONE', #19, #120, #8, .T. ) ;
#154 = DIRECTION ( 'NONE',  ( 0.000000000000000000, 1.000000000000000000, 0.000000000000000000 ) ) ;
#155 = PRESENTATION_LAYER_ASSIGNMENT (  '', '', ( #111 ) ) ;
#156 = SURFACE_STYLE_USAGE ( .BOTH. , #76 ) ;
#157 = ADVANCED_FACE ( 'NONE', ( #73, #139 ), #63, .T. ) ;
#158 = AXIS2_PLACEMENT_3D ( 'NONE', #191, #126, #43 ) ;
#159 = DIRECTION ( 'NONE',  ( 0.000000000000000000, 0.000000000000000000, -1.000000000000000000 ) ) ;
#160 = ADVANCED_FACE ( 'NONE', ( #40 ), #177, .T. ) ;
#161 = CARTESIAN_POINT ( 'NONE',  ( 0.000000000000000000, 0.000000000000000000, 0.000000000000000000 ) ) ;
#162 =( GEOMETRIC_REPRESENTATION_CONTEXT ( 3 ) GLOBAL_UNCERTAINTY_ASSIGNED_CONTEXT ( ( #33 ) ) GLOBAL_UNIT_ASSIGNED_CONTEXT ( ( #1, #165, #169 ) ) REPRESENTATION_CONTEXT ( 'NONE', 'WORKASPACE' ) );
#163 = ORIENTED_EDGE ( 'NONE', *, *, #95, .T. ) ;
#164 = AXIS2_PLACEMENT_3D ( 'NONE', #134, #167, #51 ) ;
#165 =( NAMED_UNIT ( * ) PLANE_ANGLE_UNIT ( ) SI_UNIT ( $, .RADIAN. ) );
#166 = STYLED_ITEM ( 'NONE', ( #138 ), #172 ) ;
#167 = DIRECTION ( 'NONE',  ( 0.000000000000000000, 1.000000000000000000, 0.000000000000000000 ) ) ;
#168 = CYLINDRICAL_SURFACE ( 'NONE', #194, 6.500000000000000888 ) ;
#169 =( NAMED_UNIT ( * ) SI_UNIT ( $, .STERADIAN. ) SOLID_ANGLE_UNIT ( ) );
#170 = ADVANCED_FACE ( 'NONE', ( #13 ), #137, .F. ) ;
#171 = PLANE ( 'NONE',  #92 ) ;
#172 = ADVANCED_BREP_SHAPE_REPRESENTATION ( 'PRT-ENTRETOISE-MAXIFEU', ( #5, #147 ), #25 ) ;
#173 = CARTESIAN_POINT ( 'NONE',  ( 1.040949779275250140E-15, 15.00000000000000000, 8.500000000000000000 ) ) ;
#174 = DIRECTION ( 'NONE',  ( 0.000000000000000000, 0.000000000000000000, 1.000000000000000000 ) ) ;
#175 =( NAMED_UNIT ( * ) SI_UNIT ( $, .STERADIAN. ) SOLID_ANGLE_UNIT ( ) );
#176 = PRODUCT ( 'PRT-ENTRETOISE-MAXIFEU', 'PRT-ENTRETOISE-MAXIFEU', '', ( #11 ) ) ;
#177 = CYLINDRICAL_SURFACE ( 'NONE', #182, 8.500000000000000000 ) ;
#178 = FILL_AREA_STYLE_COLOUR ( '', #58 ) ;
#179 = DIRECTION ( 'NONE',  ( 0.000000000000000000, 0.000000000000000000, 1.000000000000000000 ) ) ;
#180 = ORIENTED_EDGE ( 'NONE', *, *, #193, .F. ) ;
#181 = CARTESIAN_POINT ( 'NONE',  ( 0.000000000000000000, 0.000000000000000000, 0.000000000000000000 ) ) ;
#182 = AXIS2_PLACEMENT_3D ( 'NONE', #96, #123, #159 ) ;
#183 = AXIS2_PLACEMENT_3D ( 'NONE', #115, #28, #97 ) ;
#184 = ORIENTED_EDGE ( 'NONE', *, *, #201, .F. ) ;
#185 = CIRCLE ( 'NONE', #91, 6.500000000000000888 ) ;
#186 = MECHANICAL_DESIGN_GEOMETRIC_PRESENTATION_REPRESENTATION (  '', ( #111 ), #162 ) ;
#187 = CARTESIAN_POINT ( 'NONE',  ( 0.000000000000000000, 0.000000000000000000, 0.000000000000000000 ) ) ;
#188 = VERTEX_POINT ( 'NONE', #80 ) ;
#189 = EDGE_LOOP ( 'NONE', ( #62, #200 ) ) ;
#190 = CARTESIAN_POINT ( 'NONE',  ( 0.000000000000000000, 15.00000000000000000, -8.500000000000000000 ) ) ;
#191 = CARTESIAN_POINT ( 'NONE',  ( 0.000000000000000000, 15.00000000000000000, 0.000000000000000000 ) ) ;
#192 = DIRECTION ( 'NONE',  ( 0.000000000000000000, -0.000000000000000000, 1.000000000000000000 ) ) ;
#193 = EDGE_CURVE ( 'NONE', #20, #98, #125, .T. ) ;
#194 = AXIS2_PLACEMENT_3D ( 'NONE', #71, #205, #69 ) ;
#195 = CARTESIAN_POINT ( 'NONE',  ( 0.000000000000000000, 15.00000000000000000, 0.000000000000000000 ) ) ;
#196 = CIRCLE ( 'NONE', #158, 6.500000000000000888 ) ;
#197 = EDGE_LOOP ( 'NONE', ( #204, #85, #105, #133 ) ) ;
#198 = CARTESIAN_POINT ( 'NONE',  ( 0.000000000000000000, 15.00000000000000000, 0.000000000000000000 ) ) ;
#199 = ORIENTED_EDGE ( 'NONE', *, *, #95, .F. ) ;
#200 = ORIENTED_EDGE ( 'NONE', *, *, #117, .T. ) ;
#201 = EDGE_CURVE ( 'NONE', #188, #16, #196, .T. ) ;
#202 = ORIENTED_EDGE ( 'NONE', *, *, #153, .F. ) ;
#203 = AXIS2_PLACEMENT_3D ( 'NONE', #195, #129, #110 ) ;
#204 = ORIENTED_EDGE ( 'NONE', *, *, #117, .F. ) ;
#205 = DIRECTION ( 'NONE',  ( -0.000000000000000000, -1.000000000000000000, -0.000000000000000000 ) ) ;
#206 = SURFACE_SIDE_STYLE ('',( #106 ) ) ;
#207 = PRESENTATION_LAYER_ASSIGNMENT (  '', '', ( #166 ) ) ;
#208 = DIRECTION ( 'NONE',  ( -0.000000000000000000, -1.000000000000000000, -0.000000000000000000 ) ) ;
#209 = CARTESIAN_POINT ( 'NONE',  ( 0.000000000000000000, 0.000000000000000000, -6.500000000000000888 ) ) ;
#210 = AXIS2_PLACEMENT_3D ( 'NONE', #161, #93, #14 ) ;
#211 = EDGE_CURVE ( 'NONE', #100, #19, #54, .T. ) ;
#212 = CARTESIAN_POINT ( 'NONE',  ( 0.000000000000000000, 15.00000000000000000, 0.000000000000000000 ) ) ;
#213 = CARTESIAN_POINT ( 'NONE',  ( 0.000000000000000000, 15.00000000000000000, 0.000000000000000000 ) ) ;
#214 = EDGE_CURVE ( 'NONE', #120, #121, #78, .T. ) ;
ENDSEC;
END-ISO-10303-21;
