ISO-10303-21;
HEADER;
/* Generated by software containing ST-Developer
 * from STEP Tools, Inc. (www.steptools.com) 
 */

FILE_DESCRIPTION(
/* description */ (''),
/* implementation_level */ '2;1');

FILE_NAME(
/* name */ 'E:\\stephane_larhant\\step\\boitier_roulement.stp',
/* time_stamp */ '2021-03-29T18:04:39+02:00',
/* author */ ('Utilisateur'),
/* organization */ (''),
/* preprocessor_version */ 'ST-DEVELOPER v16.5',
/* originating_system */ 'Autodesk Inventor 2017',
/* authorisation */ '');

FILE_SCHEMA (('AUTOMOTIVE_DESIGN { 1 0 10303 214 3 1 1 }'));
ENDSEC;

DATA;
#10=MECHANICAL_DESIGN_GEOMETRIC_PRESENTATION_REPRESENTATION('',(#13),#349);
#11=SHAPE_REPRESENTATION_RELATIONSHIP('SRR','None',#358,#12);
#12=ADVANCED_BREP_SHAPE_REPRESENTATION('',(#14),#348);
#13=STYLED_ITEM('',(#367),#14);
#14=MANIFOLD_SOLID_BREP('Solide1',#191);
#15=CONICAL_SURFACE('',#204,1.22925,59.);
#16=CONICAL_SURFACE('',#208,1.22925,59.);
#17=CONICAL_SURFACE('',#212,1.22925,59.);
#18=CONICAL_SURFACE('',#216,1.22925,59.);
#19=PLANE('',#202);
#20=PLANE('',#223);
#21=PLANE('',#226);
#22=PLANE('',#230);
#23=FACE_BOUND('',#56,.T.);
#24=FACE_BOUND('',#58,.T.);
#25=FACE_BOUND('',#61,.T.);
#26=FACE_BOUND('',#64,.T.);
#27=FACE_BOUND('',#67,.T.);
#28=FACE_BOUND('',#70,.T.);
#29=FACE_BOUND('',#72,.T.);
#30=FACE_BOUND('',#74,.T.);
#31=FACE_BOUND('',#76,.T.);
#32=FACE_BOUND('',#78,.T.);
#33=FACE_BOUND('',#80,.T.);
#34=FACE_BOUND('',#82,.T.);
#35=FACE_BOUND('',#83,.T.);
#36=FACE_BOUND('',#84,.T.);
#37=FACE_BOUND('',#85,.T.);
#38=FACE_BOUND('',#86,.T.);
#39=FACE_OUTER_BOUND('',#55,.T.);
#40=FACE_OUTER_BOUND('',#57,.T.);
#41=FACE_OUTER_BOUND('',#59,.T.);
#42=FACE_OUTER_BOUND('',#60,.T.);
#43=FACE_OUTER_BOUND('',#62,.T.);
#44=FACE_OUTER_BOUND('',#63,.T.);
#45=FACE_OUTER_BOUND('',#65,.T.);
#46=FACE_OUTER_BOUND('',#66,.T.);
#47=FACE_OUTER_BOUND('',#68,.T.);
#48=FACE_OUTER_BOUND('',#69,.T.);
#49=FACE_OUTER_BOUND('',#71,.T.);
#50=FACE_OUTER_BOUND('',#73,.T.);
#51=FACE_OUTER_BOUND('',#75,.T.);
#52=FACE_OUTER_BOUND('',#77,.T.);
#53=FACE_OUTER_BOUND('',#79,.T.);
#54=FACE_OUTER_BOUND('',#81,.T.);
#55=EDGE_LOOP('',(#135));
#56=EDGE_LOOP('',(#136));
#57=EDGE_LOOP('',(#137));
#58=EDGE_LOOP('',(#138));
#59=EDGE_LOOP('',(#139));
#60=EDGE_LOOP('',(#140));
#61=EDGE_LOOP('',(#141));
#62=EDGE_LOOP('',(#142));
#63=EDGE_LOOP('',(#143));
#64=EDGE_LOOP('',(#144));
#65=EDGE_LOOP('',(#145));
#66=EDGE_LOOP('',(#146));
#67=EDGE_LOOP('',(#147));
#68=EDGE_LOOP('',(#148));
#69=EDGE_LOOP('',(#149));
#70=EDGE_LOOP('',(#150));
#71=EDGE_LOOP('',(#151));
#72=EDGE_LOOP('',(#152));
#73=EDGE_LOOP('',(#153));
#74=EDGE_LOOP('',(#154));
#75=EDGE_LOOP('',(#155));
#76=EDGE_LOOP('',(#156));
#77=EDGE_LOOP('',(#157));
#78=EDGE_LOOP('',(#158));
#79=EDGE_LOOP('',(#159));
#80=EDGE_LOOP('',(#160));
#81=EDGE_LOOP('',(#161));
#82=EDGE_LOOP('',(#162));
#83=EDGE_LOOP('',(#163));
#84=EDGE_LOOP('',(#164));
#85=EDGE_LOOP('',(#165));
#86=EDGE_LOOP('',(#166));
#87=CIRCLE('',#200,16.);
#88=CIRCLE('',#201,16.);
#89=CIRCLE('',#203,12.5);
#90=CIRCLE('',#205,2.4585);
#91=CIRCLE('',#207,2.4585);
#92=CIRCLE('',#209,2.4585);
#93=CIRCLE('',#211,2.4585);
#94=CIRCLE('',#213,2.4585);
#95=CIRCLE('',#215,2.4585);
#96=CIRCLE('',#217,2.4585);
#97=CIRCLE('',#219,2.4585);
#98=CIRCLE('',#221,16.);
#99=CIRCLE('',#222,16.);
#100=CIRCLE('',#224,12.5);
#101=CIRCLE('',#227,25.);
#102=CIRCLE('',#229,25.);
#103=VERTEX_POINT('',#299);
#104=VERTEX_POINT('',#301);
#105=VERTEX_POINT('',#304);
#106=VERTEX_POINT('',#307);
#107=VERTEX_POINT('',#310);
#108=VERTEX_POINT('',#313);
#109=VERTEX_POINT('',#316);
#110=VERTEX_POINT('',#319);
#111=VERTEX_POINT('',#322);
#112=VERTEX_POINT('',#325);
#113=VERTEX_POINT('',#328);
#114=VERTEX_POINT('',#331);
#115=VERTEX_POINT('',#333);
#116=VERTEX_POINT('',#336);
#117=VERTEX_POINT('',#340);
#118=VERTEX_POINT('',#343);
#119=EDGE_CURVE('',#103,#103,#87,.T.);
#120=EDGE_CURVE('',#104,#104,#88,.T.);
#121=EDGE_CURVE('',#105,#105,#89,.T.);
#122=EDGE_CURVE('',#106,#106,#90,.T.);
#123=EDGE_CURVE('',#107,#107,#91,.T.);
#124=EDGE_CURVE('',#108,#108,#92,.T.);
#125=EDGE_CURVE('',#109,#109,#93,.T.);
#126=EDGE_CURVE('',#110,#110,#94,.T.);
#127=EDGE_CURVE('',#111,#111,#95,.T.);
#128=EDGE_CURVE('',#112,#112,#96,.T.);
#129=EDGE_CURVE('',#113,#113,#97,.T.);
#130=EDGE_CURVE('',#114,#114,#98,.T.);
#131=EDGE_CURVE('',#115,#115,#99,.T.);
#132=EDGE_CURVE('',#116,#116,#100,.T.);
#133=EDGE_CURVE('',#117,#117,#101,.T.);
#134=EDGE_CURVE('',#118,#118,#102,.T.);
#135=ORIENTED_EDGE('',*,*,#119,.T.);
#136=ORIENTED_EDGE('',*,*,#120,.F.);
#137=ORIENTED_EDGE('',*,*,#119,.F.);
#138=ORIENTED_EDGE('',*,*,#121,.F.);
#139=ORIENTED_EDGE('',*,*,#122,.T.);
#140=ORIENTED_EDGE('',*,*,#123,.F.);
#141=ORIENTED_EDGE('',*,*,#122,.F.);
#142=ORIENTED_EDGE('',*,*,#124,.T.);
#143=ORIENTED_EDGE('',*,*,#125,.F.);
#144=ORIENTED_EDGE('',*,*,#124,.F.);
#145=ORIENTED_EDGE('',*,*,#126,.T.);
#146=ORIENTED_EDGE('',*,*,#127,.F.);
#147=ORIENTED_EDGE('',*,*,#126,.F.);
#148=ORIENTED_EDGE('',*,*,#128,.T.);
#149=ORIENTED_EDGE('',*,*,#129,.F.);
#150=ORIENTED_EDGE('',*,*,#128,.F.);
#151=ORIENTED_EDGE('',*,*,#130,.T.);
#152=ORIENTED_EDGE('',*,*,#131,.F.);
#153=ORIENTED_EDGE('',*,*,#130,.F.);
#154=ORIENTED_EDGE('',*,*,#132,.F.);
#155=ORIENTED_EDGE('',*,*,#121,.T.);
#156=ORIENTED_EDGE('',*,*,#132,.T.);
#157=ORIENTED_EDGE('',*,*,#133,.T.);
#158=ORIENTED_EDGE('',*,*,#120,.T.);
#159=ORIENTED_EDGE('',*,*,#133,.F.);
#160=ORIENTED_EDGE('',*,*,#134,.F.);
#161=ORIENTED_EDGE('',*,*,#134,.T.);
#162=ORIENTED_EDGE('',*,*,#123,.T.);
#163=ORIENTED_EDGE('',*,*,#125,.T.);
#164=ORIENTED_EDGE('',*,*,#127,.T.);
#165=ORIENTED_EDGE('',*,*,#129,.T.);
#166=ORIENTED_EDGE('',*,*,#131,.T.);
#167=CYLINDRICAL_SURFACE('',#199,16.);
#168=CYLINDRICAL_SURFACE('',#206,2.4585);
#169=CYLINDRICAL_SURFACE('',#210,2.4585);
#170=CYLINDRICAL_SURFACE('',#214,2.4585);
#171=CYLINDRICAL_SURFACE('',#218,2.4585);
#172=CYLINDRICAL_SURFACE('',#220,16.);
#173=CYLINDRICAL_SURFACE('',#225,12.5);
#174=CYLINDRICAL_SURFACE('',#228,25.);
#175=ADVANCED_FACE('',(#39,#23),#167,.F.);
#176=ADVANCED_FACE('',(#40,#24),#19,.F.);
#177=ADVANCED_FACE('',(#41),#15,.F.);
#178=ADVANCED_FACE('',(#42,#25),#168,.F.);
#179=ADVANCED_FACE('',(#43),#16,.F.);
#180=ADVANCED_FACE('',(#44,#26),#169,.F.);
#181=ADVANCED_FACE('',(#45),#17,.F.);
#182=ADVANCED_FACE('',(#46,#27),#170,.F.);
#183=ADVANCED_FACE('',(#47),#18,.F.);
#184=ADVANCED_FACE('',(#48,#28),#171,.F.);
#185=ADVANCED_FACE('',(#49,#29),#172,.F.);
#186=ADVANCED_FACE('',(#50,#30),#20,.T.);
#187=ADVANCED_FACE('',(#51,#31),#173,.F.);
#188=ADVANCED_FACE('',(#52,#32),#21,.F.);
#189=ADVANCED_FACE('',(#53,#33),#174,.T.);
#190=ADVANCED_FACE('',(#54,#34,#35,#36,#37,#38),#22,.T.);
#191=CLOSED_SHELL('',(#175,#176,#177,#178,#179,#180,#181,#182,#183,#184,
#185,#186,#187,#188,#189,#190));
#192=DATE_TIME_ROLE('creation_date');
#193=APPLIED_DATE_AND_TIME_ASSIGNMENT(#194,#192,(#360));
#194=DATE_AND_TIME(#195,#196);
#195=CALENDAR_DATE(2021,3,2);
#196=LOCAL_TIME(16,48,8.,#197);
#197=COORDINATED_UNIVERSAL_TIME_OFFSET(0,0,.BEHIND.);
#198=AXIS2_PLACEMENT_3D('placement',#297,#231,#232);
#199=AXIS2_PLACEMENT_3D('',#298,#233,#234);
#200=AXIS2_PLACEMENT_3D('',#300,#235,#236);
#201=AXIS2_PLACEMENT_3D('',#302,#237,#238);
#202=AXIS2_PLACEMENT_3D('',#303,#239,#240);
#203=AXIS2_PLACEMENT_3D('',#305,#241,#242);
#204=AXIS2_PLACEMENT_3D('',#306,#243,#244);
#205=AXIS2_PLACEMENT_3D('',#308,#245,#246);
#206=AXIS2_PLACEMENT_3D('',#309,#247,#248);
#207=AXIS2_PLACEMENT_3D('',#311,#249,#250);
#208=AXIS2_PLACEMENT_3D('',#312,#251,#252);
#209=AXIS2_PLACEMENT_3D('',#314,#253,#254);
#210=AXIS2_PLACEMENT_3D('',#315,#255,#256);
#211=AXIS2_PLACEMENT_3D('',#317,#257,#258);
#212=AXIS2_PLACEMENT_3D('',#318,#259,#260);
#213=AXIS2_PLACEMENT_3D('',#320,#261,#262);
#214=AXIS2_PLACEMENT_3D('',#321,#263,#264);
#215=AXIS2_PLACEMENT_3D('',#323,#265,#266);
#216=AXIS2_PLACEMENT_3D('',#324,#267,#268);
#217=AXIS2_PLACEMENT_3D('',#326,#269,#270);
#218=AXIS2_PLACEMENT_3D('',#327,#271,#272);
#219=AXIS2_PLACEMENT_3D('',#329,#273,#274);
#220=AXIS2_PLACEMENT_3D('',#330,#275,#276);
#221=AXIS2_PLACEMENT_3D('',#332,#277,#278);
#222=AXIS2_PLACEMENT_3D('',#334,#279,#280);
#223=AXIS2_PLACEMENT_3D('',#335,#281,#282);
#224=AXIS2_PLACEMENT_3D('',#337,#283,#284);
#225=AXIS2_PLACEMENT_3D('',#338,#285,#286);
#226=AXIS2_PLACEMENT_3D('',#339,#287,#288);
#227=AXIS2_PLACEMENT_3D('',#341,#289,#290);
#228=AXIS2_PLACEMENT_3D('',#342,#291,#292);
#229=AXIS2_PLACEMENT_3D('',#344,#293,#294);
#230=AXIS2_PLACEMENT_3D('',#345,#295,#296);
#231=DIRECTION('axis',(0.,0.,1.));
#232=DIRECTION('refdir',(1.,0.,0.));
#233=DIRECTION('center_axis',(0.,0.,1.));
#234=DIRECTION('ref_axis',(1.,0.,0.));
#235=DIRECTION('center_axis',(0.,0.,1.));
#236=DIRECTION('ref_axis',(1.,0.,0.));
#237=DIRECTION('center_axis',(0.,0.,1.));
#238=DIRECTION('ref_axis',(1.,0.,0.));
#239=DIRECTION('center_axis',(0.,0.,1.));
#240=DIRECTION('ref_axis',(1.,0.,0.));
#241=DIRECTION('center_axis',(0.,0.,-1.));
#242=DIRECTION('ref_axis',(-1.,0.,0.));
#243=DIRECTION('center_axis',(0.,0.,1.));
#244=DIRECTION('ref_axis',(-1.83697019872103E-16,1.,0.));
#245=DIRECTION('center_axis',(0.,0.,1.));
#246=DIRECTION('ref_axis',(-1.83697019872103E-16,1.,0.));
#247=DIRECTION('center_axis',(0.,0.,1.));
#248=DIRECTION('ref_axis',(-1.83697019872103E-16,1.,0.));
#249=DIRECTION('center_axis',(0.,0.,-1.));
#250=DIRECTION('ref_axis',(-1.83697019872103E-16,1.,0.));
#251=DIRECTION('center_axis',(0.,0.,1.));
#252=DIRECTION('ref_axis',(-1.,-1.22464679914735E-16,0.));
#253=DIRECTION('center_axis',(0.,0.,1.));
#254=DIRECTION('ref_axis',(-1.,-1.22464679914735E-16,0.));
#255=DIRECTION('center_axis',(0.,0.,1.));
#256=DIRECTION('ref_axis',(-1.,-1.22464679914735E-16,0.));
#257=DIRECTION('center_axis',(0.,0.,-1.));
#258=DIRECTION('ref_axis',(-1.,-1.22464679914735E-16,0.));
#259=DIRECTION('center_axis',(0.,0.,1.));
#260=DIRECTION('ref_axis',(6.12323399573677E-17,-1.,0.));
#261=DIRECTION('center_axis',(0.,0.,1.));
#262=DIRECTION('ref_axis',(6.12323399573677E-17,-1.,0.));
#263=DIRECTION('center_axis',(0.,0.,1.));
#264=DIRECTION('ref_axis',(6.12323399573677E-17,-1.,0.));
#265=DIRECTION('center_axis',(0.,0.,-1.));
#266=DIRECTION('ref_axis',(6.12323399573677E-17,-1.,0.));
#267=DIRECTION('center_axis',(0.,0.,1.));
#268=DIRECTION('ref_axis',(1.,0.,0.));
#269=DIRECTION('center_axis',(0.,0.,1.));
#270=DIRECTION('ref_axis',(1.,0.,0.));
#271=DIRECTION('center_axis',(0.,0.,1.));
#272=DIRECTION('ref_axis',(1.,0.,0.));
#273=DIRECTION('center_axis',(0.,0.,-1.));
#274=DIRECTION('ref_axis',(1.,0.,0.));
#275=DIRECTION('center_axis',(0.,0.,-1.));
#276=DIRECTION('ref_axis',(-1.,0.,0.));
#277=DIRECTION('center_axis',(0.,0.,-1.));
#278=DIRECTION('ref_axis',(-1.,0.,0.));
#279=DIRECTION('center_axis',(0.,0.,-1.));
#280=DIRECTION('ref_axis',(-1.,0.,0.));
#281=DIRECTION('center_axis',(0.,0.,1.));
#282=DIRECTION('ref_axis',(1.,0.,0.));
#283=DIRECTION('center_axis',(0.,0.,1.));
#284=DIRECTION('ref_axis',(-1.,0.,0.));
#285=DIRECTION('center_axis',(0.,0.,-1.));
#286=DIRECTION('ref_axis',(-1.,0.,0.));
#287=DIRECTION('center_axis',(0.,0.,1.));
#288=DIRECTION('ref_axis',(1.,0.,0.));
#289=DIRECTION('center_axis',(0.,0.,-1.));
#290=DIRECTION('ref_axis',(-1.,0.,0.));
#291=DIRECTION('center_axis',(0.,0.,1.));
#292=DIRECTION('ref_axis',(-1.,0.,0.));
#293=DIRECTION('center_axis',(0.,0.,1.));
#294=DIRECTION('ref_axis',(-1.,0.,0.));
#295=DIRECTION('center_axis',(0.,0.,1.));
#296=DIRECTION('ref_axis',(1.,0.,0.));
#297=CARTESIAN_POINT('',(0.,0.,0.));
#298=CARTESIAN_POINT('Origin',(0.,0.,-20.));
#299=CARTESIAN_POINT('',(-16.,1.95943487863577E-15,-11.));
#300=CARTESIAN_POINT('Origin',(0.,0.,-11.));
#301=CARTESIAN_POINT('',(-16.,1.95943487863577E-15,-20.));
#302=CARTESIAN_POINT('Origin',(0.,0.,-20.));
#303=CARTESIAN_POINT('Origin',(1.55106502066776E-15,-2.31296463463574E-16,
-11.));
#304=CARTESIAN_POINT('',(-12.5,1.53080849893419E-15,-11.));
#305=CARTESIAN_POINT('Origin',(0.,0.,-11.));
#306=CARTESIAN_POINT('Origin',(20.5,3.76578890737811E-15,2.16139208406037));
#307=CARTESIAN_POINT('',(20.5,2.4585,2.9));
#308=CARTESIAN_POINT('Origin',(20.5,3.76578890737811E-15,2.9));
#309=CARTESIAN_POINT('Origin',(20.5,3.76578890737811E-15,11.45));
#310=CARTESIAN_POINT('',(20.5,2.4585,20.));
#311=CARTESIAN_POINT('Origin',(20.5,3.76578890737811E-15,20.));
#312=CARTESIAN_POINT('Origin',(-2.51052593825207E-15,20.5,2.16139208406037));
#313=CARTESIAN_POINT('',(-2.4585,20.5,2.9));
#314=CARTESIAN_POINT('Origin',(-2.51052593825207E-15,20.5,2.9));
#315=CARTESIAN_POINT('Origin',(-2.51052593825207E-15,20.5,11.45));
#316=CARTESIAN_POINT('',(-2.4585,20.5,20.));
#317=CARTESIAN_POINT('Origin',(-2.51052593825207E-15,20.5,20.));
#318=CARTESIAN_POINT('Origin',(-20.5,-1.25526296912604E-15,2.16139208406037));
#319=CARTESIAN_POINT('',(-20.5,-2.4585,2.9));
#320=CARTESIAN_POINT('Origin',(-20.5,-1.25526296912604E-15,2.9));
#321=CARTESIAN_POINT('Origin',(-20.5,-1.25526296912604E-15,11.45));
#322=CARTESIAN_POINT('',(-20.5,-2.4585,20.));
#323=CARTESIAN_POINT('Origin',(-20.5,-1.25526296912604E-15,20.));
#324=CARTESIAN_POINT('Origin',(0.,-20.5,2.16139208406037));
#325=CARTESIAN_POINT('',(2.4585,-20.5,2.9));
#326=CARTESIAN_POINT('Origin',(0.,-20.5,2.9));
#327=CARTESIAN_POINT('Origin',(0.,-20.5,11.45));
#328=CARTESIAN_POINT('',(2.4585,-20.5,20.));
#329=CARTESIAN_POINT('Origin',(0.,-20.5,20.));
#330=CARTESIAN_POINT('Origin',(0.,0.,20.));
#331=CARTESIAN_POINT('',(16.,1.95943487863577E-15,18.));
#332=CARTESIAN_POINT('Origin',(0.,0.,18.));
#333=CARTESIAN_POINT('',(16.,1.95943487863577E-15,20.));
#334=CARTESIAN_POINT('Origin',(0.,0.,20.));
#335=CARTESIAN_POINT('Origin',(-1.55106502066776E-15,-2.31296463463574E-16,
18.));
#336=CARTESIAN_POINT('',(12.5,1.53080849893419E-15,18.));
#337=CARTESIAN_POINT('Origin',(0.,0.,18.));
#338=CARTESIAN_POINT('Origin',(0.,0.,20.));
#339=CARTESIAN_POINT('Origin',(-1.43937264275587E-15,0.,-20.));
#340=CARTESIAN_POINT('',(25.,3.06161699786838E-15,-20.));
#341=CARTESIAN_POINT('Origin',(0.,0.,-20.));
#342=CARTESIAN_POINT('Origin',(0.,0.,0.));
#343=CARTESIAN_POINT('',(25.,3.06161699786838E-15,20.));
#344=CARTESIAN_POINT('Origin',(0.,0.,20.));
#345=CARTESIAN_POINT('Origin',(-1.43937264275587E-15,0.,20.));
#346=UNCERTAINTY_MEASURE_WITH_UNIT(LENGTH_MEASURE(0.01),#350,
'DISTANCE_ACCURACY_VALUE',
'Maximum model space distance between geometric entities at asserted c
onnectivities');
#347=UNCERTAINTY_MEASURE_WITH_UNIT(LENGTH_MEASURE(1.E-6),#350,
'DISTANCE_ACCURACY_VALUE',
'Maximum model space distance between geometric entities at asserted c
onnectivities');
#348=(
GEOMETRIC_REPRESENTATION_CONTEXT(3)
GLOBAL_UNCERTAINTY_ASSIGNED_CONTEXT((#346))
GLOBAL_UNIT_ASSIGNED_CONTEXT((#350,#353,#351))
REPRESENTATION_CONTEXT('','3D')
);
#349=(
GEOMETRIC_REPRESENTATION_CONTEXT(3)
GLOBAL_UNCERTAINTY_ASSIGNED_CONTEXT((#347))
GLOBAL_UNIT_ASSIGNED_CONTEXT((#350,#353,#351))
REPRESENTATION_CONTEXT('','3D')
);
#350=(
LENGTH_UNIT()
NAMED_UNIT(*)
SI_UNIT(.MILLI.,.METRE.)
);
#351=(
NAMED_UNIT(*)
SI_UNIT($,.STERADIAN.)
SOLID_ANGLE_UNIT()
);
#352=DIMENSIONAL_EXPONENTS(0.,0.,0.,0.,0.,0.,0.);
#353=(
CONVERSION_BASED_UNIT('degree',#355)
NAMED_UNIT(#352)
PLANE_ANGLE_UNIT()
);
#354=(
NAMED_UNIT(*)
PLANE_ANGLE_UNIT()
SI_UNIT($,.RADIAN.)
);
#355=PLANE_ANGLE_MEASURE_WITH_UNIT(PLANE_ANGLE_MEASURE(0.01745329252),#354);
#356=SHAPE_DEFINITION_REPRESENTATION(#357,#358);
#357=PRODUCT_DEFINITION_SHAPE('',$,#360);
#358=SHAPE_REPRESENTATION('',(#198),#348);
#359=PRODUCT_DEFINITION_CONTEXT('part definition',#364,'design');
#360=PRODUCT_DEFINITION('boitier_roulement','boitier_roulement',#361,#359);
#361=PRODUCT_DEFINITION_FORMATION('',$,#366);
#362=PRODUCT_RELATED_PRODUCT_CATEGORY('boitier_roulement',
'boitier_roulement',(#366));
#363=APPLICATION_PROTOCOL_DEFINITION('international standard',
'automotive_design',2009,#364);
#364=APPLICATION_CONTEXT(
'Core Data for Automotive Mechanical Design Process');
#365=PRODUCT_CONTEXT('part definition',#364,'mechanical');
#366=PRODUCT('boitier_roulement','boitier_roulement',$,(#365));
#367=PRESENTATION_STYLE_ASSIGNMENT((#368));
#368=SURFACE_STYLE_USAGE(.BOTH.,#369);
#369=SURFACE_SIDE_STYLE('',(#370));
#370=SURFACE_STYLE_FILL_AREA(#371);
#371=FILL_AREA_STYLE('',(#372));
#372=FILL_AREA_STYLE_COLOUR('',#373);
#373=COLOUR_RGB('',0.768627450980392,0.76078431372549,0.8);
ENDSEC;
END-ISO-10303-21;
