ISO-10303-21;
HEADER;
/* Generated by software containing ST-Developer
 * from STEP Tools, Inc. (www.steptools.com) 
 */

FILE_DESCRIPTION(
/* description */ (''),
/* implementation_level */ '2;1');

FILE_NAME(
/* name */ 'E:\\stephane_larhant\\step\\chassis_traverse.stp',
/* time_stamp */ '2021-03-29T18:34:35+02:00',
/* author */ ('Utilisateur'),
/* organization */ (''),
/* preprocessor_version */ 'ST-DEVELOPER v16.5',
/* originating_system */ 'Autodesk Inventor 2017',
/* authorisation */ '');

FILE_SCHEMA (('AUTOMOTIVE_DESIGN { 1 0 10303 214 3 1 1 }'));
ENDSEC;

DATA;
#10=MECHANICAL_DESIGN_GEOMETRIC_PRESENTATION_REPRESENTATION('',(#13),#539);
#11=SHAPE_REPRESENTATION_RELATIONSHIP('SRR','None',#548,#12);
#12=ADVANCED_BREP_SHAPE_REPRESENTATION('',(#14),#538);
#13=STYLED_ITEM('',(#557),#14);
#14=MANIFOLD_SOLID_BREP('Solide1',#317);
#15=FACE_BOUND('',#74,.T.);
#16=FACE_BOUND('',#77,.T.);
#17=FACE_BOUND('',#80,.T.);
#18=FACE_BOUND('',#83,.T.);
#19=FACE_BOUND('',#85,.T.);
#20=FACE_BOUND('',#86,.T.);
#21=FACE_BOUND('',#89,.T.);
#22=FACE_BOUND('',#90,.T.);
#23=CONICAL_SURFACE('',#336,1.22925,59.);
#24=CONICAL_SURFACE('',#340,1.22925,59.);
#25=CONICAL_SURFACE('',#344,1.22925,59.);
#26=CONICAL_SURFACE('',#348,1.22925,59.);
#27=CIRCLE('',#327,5.);
#28=CIRCLE('',#328,5.);
#29=CIRCLE('',#332,5.);
#30=CIRCLE('',#333,5.);
#31=CIRCLE('',#337,2.4585);
#32=CIRCLE('',#339,2.4585);
#33=CIRCLE('',#341,2.4585);
#34=CIRCLE('',#343,2.4585);
#35=CIRCLE('',#345,2.4585);
#36=CIRCLE('',#347,2.4585);
#37=CIRCLE('',#349,2.4585);
#38=CIRCLE('',#351,2.4585);
#39=CYLINDRICAL_SURFACE('',#326,5.);
#40=CYLINDRICAL_SURFACE('',#331,5.);
#41=CYLINDRICAL_SURFACE('',#338,2.4585);
#42=CYLINDRICAL_SURFACE('',#342,2.4585);
#43=CYLINDRICAL_SURFACE('',#346,2.4585);
#44=CYLINDRICAL_SURFACE('',#350,2.4585);
#45=FACE_OUTER_BOUND('',#65,.T.);
#46=FACE_OUTER_BOUND('',#66,.T.);
#47=FACE_OUTER_BOUND('',#67,.T.);
#48=FACE_OUTER_BOUND('',#68,.T.);
#49=FACE_OUTER_BOUND('',#69,.T.);
#50=FACE_OUTER_BOUND('',#70,.T.);
#51=FACE_OUTER_BOUND('',#71,.T.);
#52=FACE_OUTER_BOUND('',#72,.T.);
#53=FACE_OUTER_BOUND('',#73,.T.);
#54=FACE_OUTER_BOUND('',#75,.T.);
#55=FACE_OUTER_BOUND('',#76,.T.);
#56=FACE_OUTER_BOUND('',#78,.T.);
#57=FACE_OUTER_BOUND('',#79,.T.);
#58=FACE_OUTER_BOUND('',#81,.T.);
#59=FACE_OUTER_BOUND('',#82,.T.);
#60=FACE_OUTER_BOUND('',#84,.T.);
#61=FACE_OUTER_BOUND('',#87,.T.);
#62=FACE_OUTER_BOUND('',#88,.T.);
#63=FACE_OUTER_BOUND('',#91,.T.);
#64=FACE_OUTER_BOUND('',#92,.T.);
#65=EDGE_LOOP('',(#211,#212,#213,#214));
#66=EDGE_LOOP('',(#215,#216,#217,#218));
#67=EDGE_LOOP('',(#219,#220,#221,#222));
#68=EDGE_LOOP('',(#223,#224,#225,#226));
#69=EDGE_LOOP('',(#227,#228,#229,#230));
#70=EDGE_LOOP('',(#231,#232,#233,#234,#235,#236,#237,#238,#239,#240));
#71=EDGE_LOOP('',(#241,#242,#243,#244));
#72=EDGE_LOOP('',(#245));
#73=EDGE_LOOP('',(#246));
#74=EDGE_LOOP('',(#247));
#75=EDGE_LOOP('',(#248));
#76=EDGE_LOOP('',(#249));
#77=EDGE_LOOP('',(#250));
#78=EDGE_LOOP('',(#251));
#79=EDGE_LOOP('',(#252));
#80=EDGE_LOOP('',(#253));
#81=EDGE_LOOP('',(#254));
#82=EDGE_LOOP('',(#255));
#83=EDGE_LOOP('',(#256));
#84=EDGE_LOOP('',(#257,#258,#259,#260));
#85=EDGE_LOOP('',(#261));
#86=EDGE_LOOP('',(#262));
#87=EDGE_LOOP('',(#263,#264,#265,#266));
#88=EDGE_LOOP('',(#267,#268,#269,#270));
#89=EDGE_LOOP('',(#271));
#90=EDGE_LOOP('',(#272));
#91=EDGE_LOOP('',(#273,#274,#275,#276));
#92=EDGE_LOOP('',(#277,#278,#279,#280,#281,#282,#283,#284,#285,#286));
#93=LINE('',#453,#119);
#94=LINE('',#455,#120);
#95=LINE('',#457,#121);
#96=LINE('',#458,#122);
#97=LINE('',#464,#123);
#98=LINE('',#467,#124);
#99=LINE('',#469,#125);
#100=LINE('',#470,#126);
#101=LINE('',#474,#127);
#102=LINE('',#476,#128);
#103=LINE('',#478,#129);
#104=LINE('',#479,#130);
#105=LINE('',#485,#131);
#106=LINE('',#487,#132);
#107=LINE('',#489,#133);
#108=LINE('',#491,#134);
#109=LINE('',#492,#135);
#110=LINE('',#495,#136);
#111=LINE('',#496,#137);
#112=LINE('',#523,#138);
#113=LINE('',#525,#139);
#114=LINE('',#526,#140);
#115=LINE('',#528,#141);
#116=LINE('',#531,#142);
#117=LINE('',#532,#143);
#118=LINE('',#534,#144);
#119=VECTOR('',#361,10.);
#120=VECTOR('',#362,10.);
#121=VECTOR('',#363,10.);
#122=VECTOR('',#364,10.);
#123=VECTOR('',#371,10.);
#124=VECTOR('',#374,10.);
#125=VECTOR('',#375,10.);
#126=VECTOR('',#376,10.);
#127=VECTOR('',#379,10.);
#128=VECTOR('',#380,10.);
#129=VECTOR('',#381,10.);
#130=VECTOR('',#382,10.);
#131=VECTOR('',#391,10.);
#132=VECTOR('',#392,10.);
#133=VECTOR('',#393,10.);
#134=VECTOR('',#394,10.);
#135=VECTOR('',#395,10.);
#136=VECTOR('',#398,10.);
#137=VECTOR('',#399,10.);
#138=VECTOR('',#434,10.);
#139=VECTOR('',#435,10.);
#140=VECTOR('',#436,10.);
#141=VECTOR('',#439,10.);
#142=VECTOR('',#442,10.);
#143=VECTOR('',#443,10.);
#144=VECTOR('',#446,10.);
#145=VERTEX_POINT('',#451);
#146=VERTEX_POINT('',#452);
#147=VERTEX_POINT('',#454);
#148=VERTEX_POINT('',#456);
#149=VERTEX_POINT('',#460);
#150=VERTEX_POINT('',#462);
#151=VERTEX_POINT('',#466);
#152=VERTEX_POINT('',#468);
#153=VERTEX_POINT('',#472);
#154=VERTEX_POINT('',#473);
#155=VERTEX_POINT('',#475);
#156=VERTEX_POINT('',#477);
#157=VERTEX_POINT('',#484);
#158=VERTEX_POINT('',#486);
#159=VERTEX_POINT('',#488);
#160=VERTEX_POINT('',#490);
#161=VERTEX_POINT('',#494);
#162=VERTEX_POINT('',#498);
#163=VERTEX_POINT('',#501);
#164=VERTEX_POINT('',#504);
#165=VERTEX_POINT('',#507);
#166=VERTEX_POINT('',#510);
#167=VERTEX_POINT('',#513);
#168=VERTEX_POINT('',#516);
#169=VERTEX_POINT('',#519);
#170=VERTEX_POINT('',#522);
#171=VERTEX_POINT('',#524);
#172=VERTEX_POINT('',#530);
#173=EDGE_CURVE('',#145,#146,#93,.T.);
#174=EDGE_CURVE('',#147,#145,#94,.T.);
#175=EDGE_CURVE('',#148,#147,#95,.T.);
#176=EDGE_CURVE('',#148,#146,#96,.T.);
#177=EDGE_CURVE('',#146,#149,#27,.T.);
#178=EDGE_CURVE('',#150,#148,#28,.T.);
#179=EDGE_CURVE('',#150,#149,#97,.T.);
#180=EDGE_CURVE('',#149,#151,#98,.T.);
#181=EDGE_CURVE('',#152,#150,#99,.T.);
#182=EDGE_CURVE('',#151,#152,#100,.T.);
#183=EDGE_CURVE('',#153,#154,#101,.T.);
#184=EDGE_CURVE('',#155,#153,#102,.T.);
#185=EDGE_CURVE('',#156,#155,#103,.T.);
#186=EDGE_CURVE('',#156,#154,#104,.T.);
#187=EDGE_CURVE('',#154,#145,#29,.T.);
#188=EDGE_CURVE('',#147,#156,#30,.T.);
#189=EDGE_CURVE('',#157,#151,#105,.T.);
#190=EDGE_CURVE('',#158,#157,#106,.T.);
#191=EDGE_CURVE('',#159,#158,#107,.T.);
#192=EDGE_CURVE('',#160,#159,#108,.T.);
#193=EDGE_CURVE('',#153,#160,#109,.T.);
#194=EDGE_CURVE('',#161,#152,#110,.T.);
#195=EDGE_CURVE('',#157,#161,#111,.T.);
#196=EDGE_CURVE('',#162,#162,#31,.T.);
#197=EDGE_CURVE('',#163,#163,#32,.T.);
#198=EDGE_CURVE('',#164,#164,#33,.T.);
#199=EDGE_CURVE('',#165,#165,#34,.T.);
#200=EDGE_CURVE('',#166,#166,#35,.T.);
#201=EDGE_CURVE('',#167,#167,#36,.T.);
#202=EDGE_CURVE('',#168,#168,#37,.T.);
#203=EDGE_CURVE('',#169,#169,#38,.T.);
#204=EDGE_CURVE('',#159,#170,#112,.T.);
#205=EDGE_CURVE('',#171,#170,#113,.T.);
#206=EDGE_CURVE('',#160,#171,#114,.T.);
#207=EDGE_CURVE('',#155,#171,#115,.T.);
#208=EDGE_CURVE('',#172,#161,#116,.T.);
#209=EDGE_CURVE('',#158,#172,#117,.T.);
#210=EDGE_CURVE('',#170,#172,#118,.T.);
#211=ORIENTED_EDGE('',*,*,#173,.F.);
#212=ORIENTED_EDGE('',*,*,#174,.F.);
#213=ORIENTED_EDGE('',*,*,#175,.F.);
#214=ORIENTED_EDGE('',*,*,#176,.T.);
#215=ORIENTED_EDGE('',*,*,#177,.F.);
#216=ORIENTED_EDGE('',*,*,#176,.F.);
#217=ORIENTED_EDGE('',*,*,#178,.F.);
#218=ORIENTED_EDGE('',*,*,#179,.T.);
#219=ORIENTED_EDGE('',*,*,#180,.F.);
#220=ORIENTED_EDGE('',*,*,#179,.F.);
#221=ORIENTED_EDGE('',*,*,#181,.F.);
#222=ORIENTED_EDGE('',*,*,#182,.F.);
#223=ORIENTED_EDGE('',*,*,#183,.F.);
#224=ORIENTED_EDGE('',*,*,#184,.F.);
#225=ORIENTED_EDGE('',*,*,#185,.F.);
#226=ORIENTED_EDGE('',*,*,#186,.T.);
#227=ORIENTED_EDGE('',*,*,#187,.F.);
#228=ORIENTED_EDGE('',*,*,#186,.F.);
#229=ORIENTED_EDGE('',*,*,#188,.F.);
#230=ORIENTED_EDGE('',*,*,#174,.T.);
#231=ORIENTED_EDGE('',*,*,#183,.T.);
#232=ORIENTED_EDGE('',*,*,#187,.T.);
#233=ORIENTED_EDGE('',*,*,#173,.T.);
#234=ORIENTED_EDGE('',*,*,#177,.T.);
#235=ORIENTED_EDGE('',*,*,#180,.T.);
#236=ORIENTED_EDGE('',*,*,#189,.F.);
#237=ORIENTED_EDGE('',*,*,#190,.F.);
#238=ORIENTED_EDGE('',*,*,#191,.F.);
#239=ORIENTED_EDGE('',*,*,#192,.F.);
#240=ORIENTED_EDGE('',*,*,#193,.F.);
#241=ORIENTED_EDGE('',*,*,#182,.T.);
#242=ORIENTED_EDGE('',*,*,#194,.F.);
#243=ORIENTED_EDGE('',*,*,#195,.F.);
#244=ORIENTED_EDGE('',*,*,#189,.T.);
#245=ORIENTED_EDGE('',*,*,#196,.F.);
#246=ORIENTED_EDGE('',*,*,#197,.F.);
#247=ORIENTED_EDGE('',*,*,#196,.T.);
#248=ORIENTED_EDGE('',*,*,#198,.F.);
#249=ORIENTED_EDGE('',*,*,#199,.F.);
#250=ORIENTED_EDGE('',*,*,#198,.T.);
#251=ORIENTED_EDGE('',*,*,#200,.T.);
#252=ORIENTED_EDGE('',*,*,#201,.F.);
#253=ORIENTED_EDGE('',*,*,#200,.F.);
#254=ORIENTED_EDGE('',*,*,#202,.T.);
#255=ORIENTED_EDGE('',*,*,#203,.F.);
#256=ORIENTED_EDGE('',*,*,#202,.F.);
#257=ORIENTED_EDGE('',*,*,#192,.T.);
#258=ORIENTED_EDGE('',*,*,#204,.T.);
#259=ORIENTED_EDGE('',*,*,#205,.F.);
#260=ORIENTED_EDGE('',*,*,#206,.F.);
#261=ORIENTED_EDGE('',*,*,#201,.T.);
#262=ORIENTED_EDGE('',*,*,#203,.T.);
#263=ORIENTED_EDGE('',*,*,#184,.T.);
#264=ORIENTED_EDGE('',*,*,#193,.T.);
#265=ORIENTED_EDGE('',*,*,#206,.T.);
#266=ORIENTED_EDGE('',*,*,#207,.F.);
#267=ORIENTED_EDGE('',*,*,#190,.T.);
#268=ORIENTED_EDGE('',*,*,#195,.T.);
#269=ORIENTED_EDGE('',*,*,#208,.F.);
#270=ORIENTED_EDGE('',*,*,#209,.F.);
#271=ORIENTED_EDGE('',*,*,#197,.T.);
#272=ORIENTED_EDGE('',*,*,#199,.T.);
#273=ORIENTED_EDGE('',*,*,#191,.T.);
#274=ORIENTED_EDGE('',*,*,#209,.T.);
#275=ORIENTED_EDGE('',*,*,#210,.F.);
#276=ORIENTED_EDGE('',*,*,#204,.F.);
#277=ORIENTED_EDGE('',*,*,#185,.T.);
#278=ORIENTED_EDGE('',*,*,#207,.T.);
#279=ORIENTED_EDGE('',*,*,#205,.T.);
#280=ORIENTED_EDGE('',*,*,#210,.T.);
#281=ORIENTED_EDGE('',*,*,#208,.T.);
#282=ORIENTED_EDGE('',*,*,#194,.T.);
#283=ORIENTED_EDGE('',*,*,#181,.T.);
#284=ORIENTED_EDGE('',*,*,#178,.T.);
#285=ORIENTED_EDGE('',*,*,#175,.T.);
#286=ORIENTED_EDGE('',*,*,#188,.T.);
#287=PLANE('',#325);
#288=PLANE('',#329);
#289=PLANE('',#330);
#290=PLANE('',#334);
#291=PLANE('',#335);
#292=PLANE('',#352);
#293=PLANE('',#353);
#294=PLANE('',#354);
#295=PLANE('',#355);
#296=PLANE('',#356);
#297=ADVANCED_FACE('',(#45),#287,.F.);
#298=ADVANCED_FACE('',(#46),#39,.F.);
#299=ADVANCED_FACE('',(#47),#288,.F.);
#300=ADVANCED_FACE('',(#48),#289,.F.);
#301=ADVANCED_FACE('',(#49),#40,.F.);
#302=ADVANCED_FACE('',(#50),#290,.F.);
#303=ADVANCED_FACE('',(#51),#291,.T.);
#304=ADVANCED_FACE('',(#52),#23,.F.);
#305=ADVANCED_FACE('',(#53,#15),#41,.F.);
#306=ADVANCED_FACE('',(#54),#24,.F.);
#307=ADVANCED_FACE('',(#55,#16),#42,.F.);
#308=ADVANCED_FACE('',(#56),#25,.F.);
#309=ADVANCED_FACE('',(#57,#17),#43,.F.);
#310=ADVANCED_FACE('',(#58),#26,.F.);
#311=ADVANCED_FACE('',(#59,#18),#44,.F.);
#312=ADVANCED_FACE('',(#60,#19,#20),#292,.T.);
#313=ADVANCED_FACE('',(#61),#293,.T.);
#314=ADVANCED_FACE('',(#62,#21,#22),#294,.T.);
#315=ADVANCED_FACE('',(#63),#295,.T.);
#316=ADVANCED_FACE('',(#64),#296,.T.);
#317=CLOSED_SHELL('',(#297,#298,#299,#300,#301,#302,#303,#304,#305,#306,
#307,#308,#309,#310,#311,#312,#313,#314,#315,#316));
#318=DATE_TIME_ROLE('creation_date');
#319=APPLIED_DATE_AND_TIME_ASSIGNMENT(#320,#318,(#550));
#320=DATE_AND_TIME(#321,#322);
#321=CALENDAR_DATE(2021,20,2);
#322=LOCAL_TIME(17,35,1.,#323);
#323=COORDINATED_UNIVERSAL_TIME_OFFSET(0,0,.BEHIND.);
#324=AXIS2_PLACEMENT_3D('placement',#449,#357,#358);
#325=AXIS2_PLACEMENT_3D('',#450,#359,#360);
#326=AXIS2_PLACEMENT_3D('',#459,#365,#366);
#327=AXIS2_PLACEMENT_3D('',#461,#367,#368);
#328=AXIS2_PLACEMENT_3D('',#463,#369,#370);
#329=AXIS2_PLACEMENT_3D('',#465,#372,#373);
#330=AXIS2_PLACEMENT_3D('',#471,#377,#378);
#331=AXIS2_PLACEMENT_3D('',#480,#383,#384);
#332=AXIS2_PLACEMENT_3D('',#481,#385,#386);
#333=AXIS2_PLACEMENT_3D('',#482,#387,#388);
#334=AXIS2_PLACEMENT_3D('',#483,#389,#390);
#335=AXIS2_PLACEMENT_3D('',#493,#396,#397);
#336=AXIS2_PLACEMENT_3D('',#497,#400,#401);
#337=AXIS2_PLACEMENT_3D('',#499,#402,#403);
#338=AXIS2_PLACEMENT_3D('',#500,#404,#405);
#339=AXIS2_PLACEMENT_3D('',#502,#406,#407);
#340=AXIS2_PLACEMENT_3D('',#503,#408,#409);
#341=AXIS2_PLACEMENT_3D('',#505,#410,#411);
#342=AXIS2_PLACEMENT_3D('',#506,#412,#413);
#343=AXIS2_PLACEMENT_3D('',#508,#414,#415);
#344=AXIS2_PLACEMENT_3D('',#509,#416,#417);
#345=AXIS2_PLACEMENT_3D('',#511,#418,#419);
#346=AXIS2_PLACEMENT_3D('',#512,#420,#421);
#347=AXIS2_PLACEMENT_3D('',#514,#422,#423);
#348=AXIS2_PLACEMENT_3D('',#515,#424,#425);
#349=AXIS2_PLACEMENT_3D('',#517,#426,#427);
#350=AXIS2_PLACEMENT_3D('',#518,#428,#429);
#351=AXIS2_PLACEMENT_3D('',#520,#430,#431);
#352=AXIS2_PLACEMENT_3D('',#521,#432,#433);
#353=AXIS2_PLACEMENT_3D('',#527,#437,#438);
#354=AXIS2_PLACEMENT_3D('',#529,#440,#441);
#355=AXIS2_PLACEMENT_3D('',#533,#444,#445);
#356=AXIS2_PLACEMENT_3D('',#535,#447,#448);
#357=DIRECTION('axis',(0.,0.,1.));
#358=DIRECTION('refdir',(1.,0.,0.));
#359=DIRECTION('center_axis',(0.,1.,0.));
#360=DIRECTION('ref_axis',(1.,0.,0.));
#361=DIRECTION('',(-1.,0.,0.));
#362=DIRECTION('',(0.,0.,-1.));
#363=DIRECTION('',(1.,0.,0.));
#364=DIRECTION('',(0.,0.,-1.));
#365=DIRECTION('center_axis',(0.,0.,-1.));
#366=DIRECTION('ref_axis',(0.,1.,0.));
#367=DIRECTION('center_axis',(0.,0.,1.));
#368=DIRECTION('ref_axis',(0.,1.,0.));
#369=DIRECTION('center_axis',(0.,0.,-1.));
#370=DIRECTION('ref_axis',(0.,1.,0.));
#371=DIRECTION('',(0.,0.,-1.));
#372=DIRECTION('center_axis',(-0.939692620785908,0.342020143325669,0.));
#373=DIRECTION('ref_axis',(0.342020143325669,0.939692620785908,0.));
#374=DIRECTION('',(-0.342020143325669,-0.939692620785908,0.));
#375=DIRECTION('',(0.342020143325669,0.939692620785908,0.));
#376=DIRECTION('',(0.,0.,1.));
#377=DIRECTION('center_axis',(0.939692620785908,0.342020143325669,0.));
#378=DIRECTION('ref_axis',(0.342020143325669,-0.939692620785908,0.));
#379=DIRECTION('',(-0.342020143325669,0.939692620785908,0.));
#380=DIRECTION('',(0.,0.,-1.));
#381=DIRECTION('',(0.342020143325669,-0.939692620785908,0.));
#382=DIRECTION('',(0.,0.,-1.));
#383=DIRECTION('center_axis',(0.,0.,-1.));
#384=DIRECTION('ref_axis',(0.939692620785909,0.342020143325668,0.));
#385=DIRECTION('center_axis',(0.,0.,1.));
#386=DIRECTION('ref_axis',(0.939692620785909,0.342020143325668,0.));
#387=DIRECTION('center_axis',(0.,0.,-1.));
#388=DIRECTION('ref_axis',(0.939692620785909,0.342020143325668,0.));
#389=DIRECTION('center_axis',(0.,0.,1.));
#390=DIRECTION('ref_axis',(1.,0.,0.));
#391=DIRECTION('',(1.,0.,0.));
#392=DIRECTION('',(0.,-1.,0.));
#393=DIRECTION('',(-1.,0.,0.));
#394=DIRECTION('',(0.,1.,0.));
#395=DIRECTION('',(1.,0.,0.));
#396=DIRECTION('center_axis',(0.,-1.,0.));
#397=DIRECTION('ref_axis',(1.,0.,0.));
#398=DIRECTION('',(1.,0.,0.));
#399=DIRECTION('',(0.,0.,1.));
#400=DIRECTION('center_axis',(-1.,0.,0.));
#401=DIRECTION('ref_axis',(0.,0.,-1.));
#402=DIRECTION('center_axis',(1.,0.,0.));
#403=DIRECTION('ref_axis',(0.,0.,-1.));
#404=DIRECTION('center_axis',(1.,0.,0.));
#405=DIRECTION('ref_axis',(0.,0.,-1.));
#406=DIRECTION('center_axis',(1.,0.,0.));
#407=DIRECTION('ref_axis',(0.,0.,-1.));
#408=DIRECTION('center_axis',(-1.,0.,0.));
#409=DIRECTION('ref_axis',(0.,0.,-1.));
#410=DIRECTION('center_axis',(1.,0.,0.));
#411=DIRECTION('ref_axis',(0.,0.,-1.));
#412=DIRECTION('center_axis',(1.,0.,0.));
#413=DIRECTION('ref_axis',(0.,0.,-1.));
#414=DIRECTION('center_axis',(1.,0.,0.));
#415=DIRECTION('ref_axis',(0.,0.,-1.));
#416=DIRECTION('center_axis',(1.,0.,0.));
#417=DIRECTION('ref_axis',(0.,0.,-1.));
#418=DIRECTION('center_axis',(1.,0.,0.));
#419=DIRECTION('ref_axis',(0.,0.,-1.));
#420=DIRECTION('center_axis',(1.,0.,0.));
#421=DIRECTION('ref_axis',(0.,0.,-1.));
#422=DIRECTION('center_axis',(-1.,0.,0.));
#423=DIRECTION('ref_axis',(0.,0.,-1.));
#424=DIRECTION('center_axis',(1.,0.,0.));
#425=DIRECTION('ref_axis',(0.,0.,-1.));
#426=DIRECTION('center_axis',(1.,0.,0.));
#427=DIRECTION('ref_axis',(0.,0.,-1.));
#428=DIRECTION('center_axis',(1.,0.,0.));
#429=DIRECTION('ref_axis',(0.,0.,-1.));
#430=DIRECTION('center_axis',(-1.,0.,0.));
#431=DIRECTION('ref_axis',(0.,0.,-1.));
#432=DIRECTION('center_axis',(1.,0.,0.));
#433=DIRECTION('ref_axis',(0.,1.,0.));
#434=DIRECTION('',(0.,0.,1.));
#435=DIRECTION('',(0.,1.,0.));
#436=DIRECTION('',(0.,0.,1.));
#437=DIRECTION('center_axis',(0.,-1.,0.));
#438=DIRECTION('ref_axis',(1.,0.,0.));
#439=DIRECTION('',(1.,0.,0.));
#440=DIRECTION('center_axis',(-1.,0.,0.));
#441=DIRECTION('ref_axis',(0.,-1.,0.));
#442=DIRECTION('',(0.,-1.,0.));
#443=DIRECTION('',(0.,0.,1.));
#444=DIRECTION('center_axis',(0.,1.,0.));
#445=DIRECTION('ref_axis',(-1.,0.,0.));
#446=DIRECTION('',(-1.,0.,0.));
#447=DIRECTION('center_axis',(0.,0.,1.));
#448=DIRECTION('ref_axis',(1.,0.,0.));
#449=CARTESIAN_POINT('',(0.,0.,0.));
#450=CARTESIAN_POINT('Origin',(-96.0394087949584,-18.75,16.));
#451=CARTESIAN_POINT('',(96.0394087949584,-18.75,0.));
#452=CARTESIAN_POINT('',(-96.0394087949584,-18.75,0.));
#453=CARTESIAN_POINT('',(-48.0197043974792,-18.75,0.));
#454=CARTESIAN_POINT('',(96.0394087949584,-18.75,16.));
#455=CARTESIAN_POINT('',(96.0394087949584,-18.75,16.));
#456=CARTESIAN_POINT('',(-96.0394087949584,-18.75,16.));
#457=CARTESIAN_POINT('',(-48.0197043974792,-18.75,16.));
#458=CARTESIAN_POINT('',(-96.0394087949584,-18.75,16.));
#459=CARTESIAN_POINT('Origin',(-96.0394087949584,-23.75,16.));
#460=CARTESIAN_POINT('',(-100.737871898888,-22.0398992833717,0.));
#461=CARTESIAN_POINT('Origin',(-96.0394087949584,-23.75,0.));
#462=CARTESIAN_POINT('',(-100.737871898888,-22.0398992833717,16.));
#463=CARTESIAN_POINT('Origin',(-96.0394087949584,-23.75,16.));
#464=CARTESIAN_POINT('',(-100.737871898888,-22.0398992833717,16.));
#465=CARTESIAN_POINT('Origin',(-105.,-33.75,16.));
#466=CARTESIAN_POINT('',(-105.,-33.75,0.));
#467=CARTESIAN_POINT('',(-93.435146175143,-1.97582525691198,-1.11022302462516E-15));
#468=CARTESIAN_POINT('',(-105.,-33.75,16.));
#469=CARTESIAN_POINT('',(-93.435146175143,-1.97582525691198,16.));
#470=CARTESIAN_POINT('',(-105.,-33.75,8.));
#471=CARTESIAN_POINT('Origin',(100.737871898888,-22.0398992833717,16.));
#472=CARTESIAN_POINT('',(105.,-33.75,0.));
#473=CARTESIAN_POINT('',(100.737871898888,-22.0398992833717,0.));
#474=CARTESIAN_POINT('',(91.304082124587,3.8792251014022,0.));
#475=CARTESIAN_POINT('',(105.,-33.75,16.));
#476=CARTESIAN_POINT('',(105.,-33.75,8.));
#477=CARTESIAN_POINT('',(100.737871898888,-22.0398992833717,16.));
#478=CARTESIAN_POINT('',(91.304082124587,3.8792251014022,16.));
#479=CARTESIAN_POINT('',(100.737871898888,-22.0398992833717,16.));
#480=CARTESIAN_POINT('Origin',(96.0394087949584,-23.75,16.));
#481=CARTESIAN_POINT('Origin',(96.0394087949584,-23.75,0.));
#482=CARTESIAN_POINT('Origin',(96.0394087949584,-23.75,16.));
#483=CARTESIAN_POINT('Origin',(0.,-1.15974376385304E-14,0.));
#484=CARTESIAN_POINT('',(-140.,-33.75,0.));
#485=CARTESIAN_POINT('',(-140.,-33.75,0.));
#486=CARTESIAN_POINT('',(-140.,33.75,0.));
#487=CARTESIAN_POINT('',(-140.,33.75,0.));
#488=CARTESIAN_POINT('',(140.,33.75,0.));
#489=CARTESIAN_POINT('',(140.,33.75,0.));
#490=CARTESIAN_POINT('',(140.,-33.75,0.));
#491=CARTESIAN_POINT('',(140.,-33.75,0.));
#492=CARTESIAN_POINT('',(-140.,-33.75,0.));
#493=CARTESIAN_POINT('Origin',(-140.,-33.75,0.));
#494=CARTESIAN_POINT('',(-140.,-33.75,16.));
#495=CARTESIAN_POINT('',(-140.,-33.75,16.));
#496=CARTESIAN_POINT('',(-140.,-33.75,0.));
#497=CARTESIAN_POINT('Origin',(-114.26139208406,25.75,8.));
#498=CARTESIAN_POINT('',(-115.,25.75,5.5415));
#499=CARTESIAN_POINT('Origin',(-115.,25.75,8.));
#500=CARTESIAN_POINT('Origin',(-127.5,25.75,8.));
#501=CARTESIAN_POINT('',(-140.,25.75,5.5415));
#502=CARTESIAN_POINT('Origin',(-140.,25.75,8.));
#503=CARTESIAN_POINT('Origin',(-114.26139208406,-25.75,8.));
#504=CARTESIAN_POINT('',(-115.,-25.75,5.5415));
#505=CARTESIAN_POINT('Origin',(-115.,-25.75,8.));
#506=CARTESIAN_POINT('Origin',(-127.5,-25.75,8.));
#507=CARTESIAN_POINT('',(-140.,-25.75,5.5415));
#508=CARTESIAN_POINT('Origin',(-140.,-25.75,8.));
#509=CARTESIAN_POINT('Origin',(114.26139208406,25.75,8.));
#510=CARTESIAN_POINT('',(115.,25.75,5.5415));
#511=CARTESIAN_POINT('Origin',(115.,25.75,8.));
#512=CARTESIAN_POINT('Origin',(127.5,25.75,8.));
#513=CARTESIAN_POINT('',(140.,25.75,5.5415));
#514=CARTESIAN_POINT('Origin',(140.,25.75,8.));
#515=CARTESIAN_POINT('Origin',(114.26139208406,-25.75,8.));
#516=CARTESIAN_POINT('',(115.,-25.75,5.5415));
#517=CARTESIAN_POINT('Origin',(115.,-25.75,8.));
#518=CARTESIAN_POINT('Origin',(127.5,-25.75,8.));
#519=CARTESIAN_POINT('',(140.,-25.75,5.5415));
#520=CARTESIAN_POINT('Origin',(140.,-25.75,8.));
#521=CARTESIAN_POINT('Origin',(140.,-33.75,0.));
#522=CARTESIAN_POINT('',(140.,33.75,16.));
#523=CARTESIAN_POINT('',(140.,33.75,0.));
#524=CARTESIAN_POINT('',(140.,-33.75,16.));
#525=CARTESIAN_POINT('',(140.,-33.75,16.));
#526=CARTESIAN_POINT('',(140.,-33.75,0.));
#527=CARTESIAN_POINT('Origin',(-140.,-33.75,0.));
#528=CARTESIAN_POINT('',(-140.,-33.75,16.));
#529=CARTESIAN_POINT('Origin',(-140.,33.75,0.));
#530=CARTESIAN_POINT('',(-140.,33.75,16.));
#531=CARTESIAN_POINT('',(-140.,33.75,16.));
#532=CARTESIAN_POINT('',(-140.,33.75,0.));
#533=CARTESIAN_POINT('Origin',(140.,33.75,0.));
#534=CARTESIAN_POINT('',(140.,33.75,16.));
#535=CARTESIAN_POINT('Origin',(0.,-1.33226762955019E-14,16.));
#536=UNCERTAINTY_MEASURE_WITH_UNIT(LENGTH_MEASURE(0.01),#540,
'DISTANCE_ACCURACY_VALUE',
'Maximum model space distance between geometric entities at asserted c
onnectivities');
#537=UNCERTAINTY_MEASURE_WITH_UNIT(LENGTH_MEASURE(1.E-6),#540,
'DISTANCE_ACCURACY_VALUE',
'Maximum model space distance between geometric entities at asserted c
onnectivities');
#538=(
GEOMETRIC_REPRESENTATION_CONTEXT(3)
GLOBAL_UNCERTAINTY_ASSIGNED_CONTEXT((#536))
GLOBAL_UNIT_ASSIGNED_CONTEXT((#540,#543,#541))
REPRESENTATION_CONTEXT('','3D')
);
#539=(
GEOMETRIC_REPRESENTATION_CONTEXT(3)
GLOBAL_UNCERTAINTY_ASSIGNED_CONTEXT((#537))
GLOBAL_UNIT_ASSIGNED_CONTEXT((#540,#543,#541))
REPRESENTATION_CONTEXT('','3D')
);
#540=(
LENGTH_UNIT()
NAMED_UNIT(*)
SI_UNIT(.MILLI.,.METRE.)
);
#541=(
NAMED_UNIT(*)
SI_UNIT($,.STERADIAN.)
SOLID_ANGLE_UNIT()
);
#542=DIMENSIONAL_EXPONENTS(0.,0.,0.,0.,0.,0.,0.);
#543=(
CONVERSION_BASED_UNIT('degree',#545)
NAMED_UNIT(#542)
PLANE_ANGLE_UNIT()
);
#544=(
NAMED_UNIT(*)
PLANE_ANGLE_UNIT()
SI_UNIT($,.RADIAN.)
);
#545=PLANE_ANGLE_MEASURE_WITH_UNIT(PLANE_ANGLE_MEASURE(0.01745329252),#544);
#546=SHAPE_DEFINITION_REPRESENTATION(#547,#548);
#547=PRODUCT_DEFINITION_SHAPE('',$,#550);
#548=SHAPE_REPRESENTATION('',(#324),#538);
#549=PRODUCT_DEFINITION_CONTEXT('part definition',#554,'design');
#550=PRODUCT_DEFINITION('chassis_traverse','chassis_traverse',#551,#549);
#551=PRODUCT_DEFINITION_FORMATION('',$,#556);
#552=PRODUCT_RELATED_PRODUCT_CATEGORY('chassis_traverse',
'chassis_traverse',(#556));
#553=APPLICATION_PROTOCOL_DEFINITION('international standard',
'automotive_design',2009,#554);
#554=APPLICATION_CONTEXT(
'Core Data for Automotive Mechanical Design Process');
#555=PRODUCT_CONTEXT('part definition',#554,'mechanical');
#556=PRODUCT('chassis_traverse','chassis_traverse',$,(#555));
#557=PRESENTATION_STYLE_ASSIGNMENT((#558));
#558=SURFACE_STYLE_USAGE(.BOTH.,#559);
#559=SURFACE_SIDE_STYLE('',(#560));
#560=SURFACE_STYLE_FILL_AREA(#561);
#561=FILL_AREA_STYLE('',(#562));
#562=FILL_AREA_STYLE_COLOUR('',#563);
#563=COLOUR_RGB('',0.768627450980392,0.76078431372549,0.8);
ENDSEC;
END-ISO-10303-21;
