ISO-10303-21;
HEADER;
/* Generated by software containing ST-Developer
 * from STEP Tools, Inc. (www.steptools.com) 
 */

FILE_DESCRIPTION(
/* description */ (''),
/* implementation_level */ '2;1');

FILE_NAME(
/* name */ 'E:\\stephane_larhant\\step\\chariot_base_fixation_galet1.s
tp',
/* time_stamp */ '2021-03-29T18:13:46+02:00',
/* author */ ('Utilisateur'),
/* organization */ (''),
/* preprocessor_version */ 'ST-DEVELOPER v16.5',
/* originating_system */ 'Autodesk Inventor 2017',
/* authorisation */ '');

FILE_SCHEMA (('AUTOMOTIVE_DESIGN { 1 0 10303 214 3 1 1 }'));
ENDSEC;

DATA;
#10=MECHANICAL_DESIGN_GEOMETRIC_PRESENTATION_REPRESENTATION('',(#13),#391);
#11=SHAPE_REPRESENTATION_RELATIONSHIP('SRR','None',#400,#12);
#12=ADVANCED_BREP_SHAPE_REPRESENTATION('',(#14),#390);
#13=STYLED_ITEM('',(#409),#14);
#14=MANIFOLD_SOLID_BREP('Solide1',#233);
#15=LINE('',#338,#33);
#16=LINE('',#340,#34);
#17=LINE('',#342,#35);
#18=LINE('',#343,#36);
#19=LINE('',#362,#37);
#20=LINE('',#364,#38);
#21=LINE('',#366,#39);
#22=LINE('',#367,#40);
#23=LINE('',#370,#41);
#24=LINE('',#372,#42);
#25=LINE('',#373,#43);
#26=LINE('',#376,#44);
#27=LINE('',#378,#45);
#28=LINE('',#379,#46);
#29=LINE('',#381,#47);
#30=LINE('',#382,#48);
#31=LINE('',#384,#49);
#32=LINE('',#385,#50);
#33=VECTOR('',#275,10.);
#34=VECTOR('',#276,10.);
#35=VECTOR('',#277,10.);
#36=VECTOR('',#278,10.);
#37=VECTOR('',#301,10.);
#38=VECTOR('',#302,10.);
#39=VECTOR('',#303,10.);
#40=VECTOR('',#304,10.);
#41=VECTOR('',#307,10.);
#42=VECTOR('',#308,10.);
#43=VECTOR('',#309,10.);
#44=VECTOR('',#312,10.);
#45=VECTOR('',#313,10.);
#46=VECTOR('',#314,10.);
#47=VECTOR('',#317,10.);
#48=VECTOR('',#318,10.);
#49=VECTOR('',#321,10.);
#50=VECTOR('',#322,10.);
#51=PLANE('',#245);
#52=PLANE('',#248);
#53=PLANE('',#256);
#54=PLANE('',#257);
#55=PLANE('',#258);
#56=PLANE('',#259);
#57=PLANE('',#260);
#58=PLANE('',#261);
#59=PLANE('',#262);
#60=FACE_BOUND('',#90,.T.);
#61=FACE_BOUND('',#92,.T.);
#62=FACE_BOUND('',#93,.T.);
#63=FACE_BOUND('',#95,.T.);
#64=FACE_BOUND('',#97,.T.);
#65=FACE_BOUND('',#99,.T.);
#66=FACE_BOUND('',#101,.T.);
#67=FACE_BOUND('',#103,.T.);
#68=FACE_BOUND('',#105,.T.);
#69=FACE_BOUND('',#107,.T.);
#70=CIRCLE('',#244,2.067);
#71=CIRCLE('',#247,2.6);
#72=CIRCLE('',#249,4.25);
#73=CIRCLE('',#250,2.6);
#74=CIRCLE('',#252,4.25);
#75=CIRCLE('',#255,2.067);
#76=FACE_OUTER_BOUND('',#89,.T.);
#77=FACE_OUTER_BOUND('',#91,.T.);
#78=FACE_OUTER_BOUND('',#94,.T.);
#79=FACE_OUTER_BOUND('',#96,.T.);
#80=FACE_OUTER_BOUND('',#98,.T.);
#81=FACE_OUTER_BOUND('',#100,.T.);
#82=FACE_OUTER_BOUND('',#102,.T.);
#83=FACE_OUTER_BOUND('',#104,.T.);
#84=FACE_OUTER_BOUND('',#106,.T.);
#85=FACE_OUTER_BOUND('',#108,.T.);
#86=FACE_OUTER_BOUND('',#109,.T.);
#87=FACE_OUTER_BOUND('',#110,.T.);
#88=FACE_OUTER_BOUND('',#111,.T.);
#89=EDGE_LOOP('',(#162,#163));
#90=EDGE_LOOP('',(#164));
#91=EDGE_LOOP('',(#165,#166,#167,#168));
#92=EDGE_LOOP('',(#169,#170));
#93=EDGE_LOOP('',(#171));
#94=EDGE_LOOP('',(#172));
#95=EDGE_LOOP('',(#173));
#96=EDGE_LOOP('',(#174));
#97=EDGE_LOOP('',(#175));
#98=EDGE_LOOP('',(#176));
#99=EDGE_LOOP('',(#177));
#100=EDGE_LOOP('',(#178,#179));
#101=EDGE_LOOP('',(#180));
#102=EDGE_LOOP('',(#181,#182,#183,#184));
#103=EDGE_LOOP('',(#185));
#104=EDGE_LOOP('',(#186,#187,#188,#189));
#105=EDGE_LOOP('',(#190));
#106=EDGE_LOOP('',(#191,#192,#193,#194));
#107=EDGE_LOOP('',(#195));
#108=EDGE_LOOP('',(#196,#197,#198,#199));
#109=EDGE_LOOP('',(#200,#201,#202,#203));
#110=EDGE_LOOP('',(#204,#205,#206,#207,#208,#209));
#111=EDGE_LOOP('',(#210,#211,#212,#213,#214,#215));
#112=ELLIPSE('',#242,2.92317943342519,2.067);
#113=ELLIPSE('',#243,2.92317943342519,2.067);
#114=ELLIPSE('',#246,2.92317943342519,2.067);
#115=VERTEX_POINT('',#329);
#116=VERTEX_POINT('',#330);
#117=VERTEX_POINT('',#333);
#118=VERTEX_POINT('',#336);
#119=VERTEX_POINT('',#337);
#120=VERTEX_POINT('',#339);
#121=VERTEX_POINT('',#341);
#122=VERTEX_POINT('',#345);
#123=VERTEX_POINT('',#348);
#124=VERTEX_POINT('',#350);
#125=VERTEX_POINT('',#353);
#126=VERTEX_POINT('',#357);
#127=VERTEX_POINT('',#360);
#128=VERTEX_POINT('',#361);
#129=VERTEX_POINT('',#363);
#130=VERTEX_POINT('',#365);
#131=VERTEX_POINT('',#369);
#132=VERTEX_POINT('',#371);
#133=VERTEX_POINT('',#375);
#134=VERTEX_POINT('',#377);
#135=EDGE_CURVE('',#115,#116,#112,.T.);
#136=EDGE_CURVE('',#116,#115,#113,.T.);
#137=EDGE_CURVE('',#117,#117,#70,.T.);
#138=EDGE_CURVE('',#118,#119,#15,.T.);
#139=EDGE_CURVE('',#119,#120,#16,.T.);
#140=EDGE_CURVE('',#121,#120,#17,.T.);
#141=EDGE_CURVE('',#118,#121,#18,.T.);
#142=EDGE_CURVE('',#115,#116,#114,.T.);
#143=EDGE_CURVE('',#122,#122,#71,.T.);
#144=EDGE_CURVE('',#123,#123,#72,.T.);
#145=EDGE_CURVE('',#124,#124,#73,.T.);
#146=EDGE_CURVE('',#125,#125,#74,.T.);
#147=EDGE_CURVE('',#126,#126,#75,.T.);
#148=EDGE_CURVE('',#127,#128,#19,.T.);
#149=EDGE_CURVE('',#128,#129,#20,.T.);
#150=EDGE_CURVE('',#130,#129,#21,.T.);
#151=EDGE_CURVE('',#127,#130,#22,.T.);
#152=EDGE_CURVE('',#131,#127,#23,.T.);
#153=EDGE_CURVE('',#132,#130,#24,.T.);
#154=EDGE_CURVE('',#131,#132,#25,.T.);
#155=EDGE_CURVE('',#133,#131,#26,.T.);
#156=EDGE_CURVE('',#134,#132,#27,.T.);
#157=EDGE_CURVE('',#133,#134,#28,.T.);
#158=EDGE_CURVE('',#119,#133,#29,.T.);
#159=EDGE_CURVE('',#120,#134,#30,.T.);
#160=EDGE_CURVE('',#128,#118,#31,.T.);
#161=EDGE_CURVE('',#129,#121,#32,.T.);
#162=ORIENTED_EDGE('',*,*,#135,.F.);
#163=ORIENTED_EDGE('',*,*,#136,.F.);
#164=ORIENTED_EDGE('',*,*,#137,.F.);
#165=ORIENTED_EDGE('',*,*,#138,.T.);
#166=ORIENTED_EDGE('',*,*,#139,.T.);
#167=ORIENTED_EDGE('',*,*,#140,.F.);
#168=ORIENTED_EDGE('',*,*,#141,.F.);
#169=ORIENTED_EDGE('',*,*,#136,.T.);
#170=ORIENTED_EDGE('',*,*,#142,.T.);
#171=ORIENTED_EDGE('',*,*,#143,.T.);
#172=ORIENTED_EDGE('',*,*,#144,.T.);
#173=ORIENTED_EDGE('',*,*,#145,.F.);
#174=ORIENTED_EDGE('',*,*,#146,.F.);
#175=ORIENTED_EDGE('',*,*,#144,.F.);
#176=ORIENTED_EDGE('',*,*,#143,.F.);
#177=ORIENTED_EDGE('',*,*,#145,.T.);
#178=ORIENTED_EDGE('',*,*,#135,.T.);
#179=ORIENTED_EDGE('',*,*,#142,.F.);
#180=ORIENTED_EDGE('',*,*,#147,.F.);
#181=ORIENTED_EDGE('',*,*,#148,.T.);
#182=ORIENTED_EDGE('',*,*,#149,.T.);
#183=ORIENTED_EDGE('',*,*,#150,.F.);
#184=ORIENTED_EDGE('',*,*,#151,.F.);
#185=ORIENTED_EDGE('',*,*,#147,.T.);
#186=ORIENTED_EDGE('',*,*,#152,.T.);
#187=ORIENTED_EDGE('',*,*,#151,.T.);
#188=ORIENTED_EDGE('',*,*,#153,.F.);
#189=ORIENTED_EDGE('',*,*,#154,.F.);
#190=ORIENTED_EDGE('',*,*,#146,.T.);
#191=ORIENTED_EDGE('',*,*,#155,.T.);
#192=ORIENTED_EDGE('',*,*,#154,.T.);
#193=ORIENTED_EDGE('',*,*,#156,.F.);
#194=ORIENTED_EDGE('',*,*,#157,.F.);
#195=ORIENTED_EDGE('',*,*,#137,.T.);
#196=ORIENTED_EDGE('',*,*,#158,.T.);
#197=ORIENTED_EDGE('',*,*,#157,.T.);
#198=ORIENTED_EDGE('',*,*,#159,.F.);
#199=ORIENTED_EDGE('',*,*,#139,.F.);
#200=ORIENTED_EDGE('',*,*,#160,.T.);
#201=ORIENTED_EDGE('',*,*,#141,.T.);
#202=ORIENTED_EDGE('',*,*,#161,.F.);
#203=ORIENTED_EDGE('',*,*,#149,.F.);
#204=ORIENTED_EDGE('',*,*,#161,.T.);
#205=ORIENTED_EDGE('',*,*,#140,.T.);
#206=ORIENTED_EDGE('',*,*,#159,.T.);
#207=ORIENTED_EDGE('',*,*,#156,.T.);
#208=ORIENTED_EDGE('',*,*,#153,.T.);
#209=ORIENTED_EDGE('',*,*,#150,.T.);
#210=ORIENTED_EDGE('',*,*,#160,.F.);
#211=ORIENTED_EDGE('',*,*,#148,.F.);
#212=ORIENTED_EDGE('',*,*,#152,.F.);
#213=ORIENTED_EDGE('',*,*,#155,.F.);
#214=ORIENTED_EDGE('',*,*,#158,.F.);
#215=ORIENTED_EDGE('',*,*,#138,.F.);
#216=CYLINDRICAL_SURFACE('',#241,2.067);
#217=CYLINDRICAL_SURFACE('',#251,4.25);
#218=CYLINDRICAL_SURFACE('',#253,2.6);
#219=CYLINDRICAL_SURFACE('',#254,2.067);
#220=ADVANCED_FACE('',(#76,#60),#216,.F.);
#221=ADVANCED_FACE('',(#77,#61,#62),#51,.T.);
#222=ADVANCED_FACE('',(#78,#63),#52,.T.);
#223=ADVANCED_FACE('',(#79,#64),#217,.F.);
#224=ADVANCED_FACE('',(#80,#65),#218,.F.);
#225=ADVANCED_FACE('',(#81,#66),#219,.F.);
#226=ADVANCED_FACE('',(#82,#67),#53,.T.);
#227=ADVANCED_FACE('',(#83,#68),#54,.T.);
#228=ADVANCED_FACE('',(#84,#69),#55,.T.);
#229=ADVANCED_FACE('',(#85),#56,.T.);
#230=ADVANCED_FACE('',(#86),#57,.T.);
#231=ADVANCED_FACE('',(#87),#58,.T.);
#232=ADVANCED_FACE('',(#88),#59,.F.);
#233=CLOSED_SHELL('',(#220,#221,#222,#223,#224,#225,#226,#227,#228,#229,
#230,#231,#232));
#234=DATE_TIME_ROLE('creation_date');
#235=APPLIED_DATE_AND_TIME_ASSIGNMENT(#236,#234,(#402));
#236=DATE_AND_TIME(#237,#238);
#237=CALENDAR_DATE(2021,8,2);
#238=LOCAL_TIME(16,34,5.,#239);
#239=COORDINATED_UNIVERSAL_TIME_OFFSET(0,0,.BEHIND.);
#240=AXIS2_PLACEMENT_3D('placement',#327,#263,#264);
#241=AXIS2_PLACEMENT_3D('',#328,#265,#266);
#242=AXIS2_PLACEMENT_3D('',#331,#267,#268);
#243=AXIS2_PLACEMENT_3D('',#332,#269,#270);
#244=AXIS2_PLACEMENT_3D('',#334,#271,#272);
#245=AXIS2_PLACEMENT_3D('',#335,#273,#274);
#246=AXIS2_PLACEMENT_3D('',#344,#279,#280);
#247=AXIS2_PLACEMENT_3D('',#346,#281,#282);
#248=AXIS2_PLACEMENT_3D('',#347,#283,#284);
#249=AXIS2_PLACEMENT_3D('',#349,#285,#286);
#250=AXIS2_PLACEMENT_3D('',#351,#287,#288);
#251=AXIS2_PLACEMENT_3D('',#352,#289,#290);
#252=AXIS2_PLACEMENT_3D('',#354,#291,#292);
#253=AXIS2_PLACEMENT_3D('',#355,#293,#294);
#254=AXIS2_PLACEMENT_3D('',#356,#295,#296);
#255=AXIS2_PLACEMENT_3D('',#358,#297,#298);
#256=AXIS2_PLACEMENT_3D('',#359,#299,#300);
#257=AXIS2_PLACEMENT_3D('',#368,#305,#306);
#258=AXIS2_PLACEMENT_3D('',#374,#310,#311);
#259=AXIS2_PLACEMENT_3D('',#380,#315,#316);
#260=AXIS2_PLACEMENT_3D('',#383,#319,#320);
#261=AXIS2_PLACEMENT_3D('',#386,#323,#324);
#262=AXIS2_PLACEMENT_3D('',#387,#325,#326);
#263=DIRECTION('axis',(0.,0.,1.));
#264=DIRECTION('refdir',(1.,0.,0.));
#265=DIRECTION('center_axis',(-0.707106781186547,-0.707106781186548,0.));
#266=DIRECTION('ref_axis',(0.707106781186548,-0.707106781186547,0.));
#267=DIRECTION('center_axis',(1.,5.69699731017335E-16,0.));
#268=DIRECTION('ref_axis',(5.69699731017335E-16,-1.,0.));
#269=DIRECTION('center_axis',(0.,1.,0.));
#270=DIRECTION('ref_axis',(1.,0.,0.));
#271=DIRECTION('center_axis',(-0.707106781186547,-0.707106781186548,0.));
#272=DIRECTION('ref_axis',(0.707106781186548,-0.707106781186547,0.));
#273=DIRECTION('center_axis',(0.,-1.,0.));
#274=DIRECTION('ref_axis',(1.,0.,0.));
#275=DIRECTION('',(1.,0.,0.));
#276=DIRECTION('',(0.,0.,1.));
#277=DIRECTION('',(1.,0.,0.));
#278=DIRECTION('',(0.,0.,1.));
#279=DIRECTION('center_axis',(0.,1.,0.));
#280=DIRECTION('ref_axis',(-1.,0.,0.));
#281=DIRECTION('center_axis',(0.,1.,0.));
#282=DIRECTION('ref_axis',(1.,0.,0.));
#283=DIRECTION('center_axis',(0.,1.,0.));
#284=DIRECTION('ref_axis',(1.,0.,0.));
#285=DIRECTION('center_axis',(0.,1.,0.));
#286=DIRECTION('ref_axis',(1.,0.,0.));
#287=DIRECTION('center_axis',(0.,1.,0.));
#288=DIRECTION('ref_axis',(1.,0.,0.));
#289=DIRECTION('center_axis',(0.,1.,0.));
#290=DIRECTION('ref_axis',(1.,0.,0.));
#291=DIRECTION('center_axis',(0.,-1.,0.));
#292=DIRECTION('ref_axis',(1.,0.,0.));
#293=DIRECTION('center_axis',(0.,1.,0.));
#294=DIRECTION('ref_axis',(1.,0.,0.));
#295=DIRECTION('center_axis',(-0.707106781186547,0.707106781186548,0.));
#296=DIRECTION('ref_axis',(-0.707106781186548,-0.707106781186547,0.));
#297=DIRECTION('center_axis',(0.707106781186547,-0.707106781186548,0.));
#298=DIRECTION('ref_axis',(-0.707106781186548,-0.707106781186547,0.));
#299=DIRECTION('center_axis',(-0.707106781186547,0.707106781186548,0.));
#300=DIRECTION('ref_axis',(-0.707106781186548,-0.707106781186547,0.));
#301=DIRECTION('',(-0.707106781186548,-0.707106781186547,0.));
#302=DIRECTION('',(0.,0.,1.));
#303=DIRECTION('',(-0.707106781186548,-0.707106781186547,0.));
#304=DIRECTION('',(0.,0.,1.));
#305=DIRECTION('center_axis',(0.,1.,0.));
#306=DIRECTION('ref_axis',(-1.,0.,0.));
#307=DIRECTION('',(-1.,0.,0.));
#308=DIRECTION('',(-1.,0.,0.));
#309=DIRECTION('',(0.,0.,1.));
#310=DIRECTION('center_axis',(0.707106781186547,0.707106781186548,0.));
#311=DIRECTION('ref_axis',(-0.707106781186548,0.707106781186547,0.));
#312=DIRECTION('',(-0.707106781186548,0.707106781186547,0.));
#313=DIRECTION('',(-0.707106781186548,0.707106781186547,0.));
#314=DIRECTION('',(0.,0.,1.));
#315=DIRECTION('center_axis',(1.,-3.33066907387547E-15,0.));
#316=DIRECTION('ref_axis',(3.37507799486048E-15,1.,0.));
#317=DIRECTION('',(3.33066907387547E-15,1.,0.));
#318=DIRECTION('',(3.33066907387547E-15,1.,0.));
#319=DIRECTION('center_axis',(-1.,-3.33066907387547E-15,0.));
#320=DIRECTION('ref_axis',(3.37507799486048E-15,-1.,0.));
#321=DIRECTION('',(3.33066907387547E-15,-1.,0.));
#322=DIRECTION('',(3.33066907387547E-15,-1.,0.));
#323=DIRECTION('center_axis',(0.,0.,1.));
#324=DIRECTION('ref_axis',(1.,0.,0.));
#325=DIRECTION('center_axis',(0.,0.,1.));
#326=DIRECTION('ref_axis',(1.,0.,0.));
#327=CARTESIAN_POINT('',(0.,0.,0.));
#328=CARTESIAN_POINT('Origin',(4.86862915010153,0.0904545570494897,10.5));
#329=CARTESIAN_POINT('',(3.63888395547572E-16,-2.,9.85706768220905));
#330=CARTESIAN_POINT('',(3.63888395547572E-16,-2.,11.1429323177909));
#331=CARTESIAN_POINT('Origin',(1.11022302462516E-15,-4.77817459305205,10.5));
#332=CARTESIAN_POINT('Origin',(2.77817459305205,-2.,10.5));
#333=CARTESIAN_POINT('',(11.3506770132386,3.64932298676139,10.5));
#334=CARTESIAN_POINT('Origin',(9.88908729652602,5.11091270347398,10.5));
#335=CARTESIAN_POINT('Origin',(-15.,-2.,0.));
#336=CARTESIAN_POINT('',(-15.,-2.,0.));
#337=CARTESIAN_POINT('',(15.,-2.,0.));
#338=CARTESIAN_POINT('',(-15.,-2.,0.));
#339=CARTESIAN_POINT('',(15.,-2.,25.));
#340=CARTESIAN_POINT('',(15.,-2.,0.));
#341=CARTESIAN_POINT('',(-15.,-2.,25.));
#342=CARTESIAN_POINT('',(-15.,-2.,25.));
#343=CARTESIAN_POINT('',(-15.,-2.,0.));
#344=CARTESIAN_POINT('Origin',(-2.77817459305205,-2.,10.5));
#345=CARTESIAN_POINT('',(-2.6,-2.,19.));
#346=CARTESIAN_POINT('Origin',(-1.11022302462516E-15,-2.,19.));
#347=CARTESIAN_POINT('Origin',(-1.11022302462516E-15,3.99999999999999,19.));
#348=CARTESIAN_POINT('',(4.25,3.99999999999999,19.));
#349=CARTESIAN_POINT('Origin',(-1.11022302462516E-15,3.99999999999999,19.));
#350=CARTESIAN_POINT('',(-2.6,3.99999999999999,19.));
#351=CARTESIAN_POINT('Origin',(-1.11022302462516E-15,3.99999999999999,19.));
#352=CARTESIAN_POINT('Origin',(-1.11022302462516E-15,6.49999999999999,19.));
#353=CARTESIAN_POINT('',(4.25,8.99999999999999,19.));
#354=CARTESIAN_POINT('Origin',(-1.11022302462516E-15,8.99999999999999,19.));
#355=CARTESIAN_POINT('Origin',(-1.11022302462516E-15,-31.5709255502016,
19.));
#356=CARTESIAN_POINT('Origin',(-4.86862915010153,0.0904545570494897,10.5));
#357=CARTESIAN_POINT('',(-11.3506770132386,3.64932298676139,10.5));
#358=CARTESIAN_POINT('Origin',(-9.88908729652602,5.11091270347398,10.5));
#359=CARTESIAN_POINT('Origin',(-6.,8.99999999999999,0.));
#360=CARTESIAN_POINT('',(-6.,8.99999999999999,0.));
#361=CARTESIAN_POINT('',(-15.,0.,0.));
#362=CARTESIAN_POINT('',(-6.,8.99999999999999,0.));
#363=CARTESIAN_POINT('',(-15.,0.,25.));
#364=CARTESIAN_POINT('',(-15.,0.,0.));
#365=CARTESIAN_POINT('',(-6.,8.99999999999999,25.));
#366=CARTESIAN_POINT('',(-6.,8.99999999999999,25.));
#367=CARTESIAN_POINT('',(-6.,8.99999999999999,0.));
#368=CARTESIAN_POINT('Origin',(6.,8.99999999999999,0.));
#369=CARTESIAN_POINT('',(6.,8.99999999999999,0.));
#370=CARTESIAN_POINT('',(6.,8.99999999999999,0.));
#371=CARTESIAN_POINT('',(6.,8.99999999999999,25.));
#372=CARTESIAN_POINT('',(6.,8.99999999999999,25.));
#373=CARTESIAN_POINT('',(6.,8.99999999999999,0.));
#374=CARTESIAN_POINT('Origin',(15.,0.,0.));
#375=CARTESIAN_POINT('',(15.,0.,0.));
#376=CARTESIAN_POINT('',(15.,0.,0.));
#377=CARTESIAN_POINT('',(15.,0.,25.));
#378=CARTESIAN_POINT('',(15.,0.,25.));
#379=CARTESIAN_POINT('',(15.,0.,0.));
#380=CARTESIAN_POINT('Origin',(15.,-2.,0.));
#381=CARTESIAN_POINT('',(15.,-2.,0.));
#382=CARTESIAN_POINT('',(15.,-2.,25.));
#383=CARTESIAN_POINT('Origin',(-15.,0.,0.));
#384=CARTESIAN_POINT('',(-15.,0.,0.));
#385=CARTESIAN_POINT('',(-15.,0.,25.));
#386=CARTESIAN_POINT('Origin',(0.,2.21887097547865,25.));
#387=CARTESIAN_POINT('Origin',(-6.99173548664997E-16,2.21887097547865,0.));
#388=UNCERTAINTY_MEASURE_WITH_UNIT(LENGTH_MEASURE(0.01),#392,
'DISTANCE_ACCURACY_VALUE',
'Maximum model space distance between geometric entities at asserted c
onnectivities');
#389=UNCERTAINTY_MEASURE_WITH_UNIT(LENGTH_MEASURE(1.E-6),#392,
'DISTANCE_ACCURACY_VALUE',
'Maximum model space distance between geometric entities at asserted c
onnectivities');
#390=(
GEOMETRIC_REPRESENTATION_CONTEXT(3)
GLOBAL_UNCERTAINTY_ASSIGNED_CONTEXT((#388))
GLOBAL_UNIT_ASSIGNED_CONTEXT((#392,#395,#393))
REPRESENTATION_CONTEXT('','3D')
);
#391=(
GEOMETRIC_REPRESENTATION_CONTEXT(3)
GLOBAL_UNCERTAINTY_ASSIGNED_CONTEXT((#389))
GLOBAL_UNIT_ASSIGNED_CONTEXT((#392,#395,#393))
REPRESENTATION_CONTEXT('','3D')
);
#392=(
LENGTH_UNIT()
NAMED_UNIT(*)
SI_UNIT(.MILLI.,.METRE.)
);
#393=(
NAMED_UNIT(*)
SI_UNIT($,.STERADIAN.)
SOLID_ANGLE_UNIT()
);
#394=DIMENSIONAL_EXPONENTS(0.,0.,0.,0.,0.,0.,0.);
#395=(
CONVERSION_BASED_UNIT('degree',#397)
NAMED_UNIT(#394)
PLANE_ANGLE_UNIT()
);
#396=(
NAMED_UNIT(*)
PLANE_ANGLE_UNIT()
SI_UNIT($,.RADIAN.)
);
#397=PLANE_ANGLE_MEASURE_WITH_UNIT(PLANE_ANGLE_MEASURE(0.01745329252),#396);
#398=SHAPE_DEFINITION_REPRESENTATION(#399,#400);
#399=PRODUCT_DEFINITION_SHAPE('',$,#402);
#400=SHAPE_REPRESENTATION('',(#240),#390);
#401=PRODUCT_DEFINITION_CONTEXT('part definition',#406,'design');
#402=PRODUCT_DEFINITION('chariot_base_fixation_galet1',
'chariot_base_fixation_galet1',#403,#401);
#403=PRODUCT_DEFINITION_FORMATION('',$,#408);
#404=PRODUCT_RELATED_PRODUCT_CATEGORY('chariot_base_fixation_galet1',
'chariot_base_fixation_galet1',(#408));
#405=APPLICATION_PROTOCOL_DEFINITION('international standard',
'automotive_design',2009,#406);
#406=APPLICATION_CONTEXT(
'Core Data for Automotive Mechanical Design Process');
#407=PRODUCT_CONTEXT('part definition',#406,'mechanical');
#408=PRODUCT('chariot_base_fixation_galet1',
'chariot_base_fixation_galet1',$,(#407));
#409=PRESENTATION_STYLE_ASSIGNMENT((#410));
#410=SURFACE_STYLE_USAGE(.BOTH.,#411);
#411=SURFACE_SIDE_STYLE('',(#412));
#412=SURFACE_STYLE_FILL_AREA(#413);
#413=FILL_AREA_STYLE('',(#414));
#414=FILL_AREA_STYLE_COLOUR('',#415);
#415=COLOUR_RGB('',0.745098039215686,0.737254901960784,0.729411764705882);
ENDSEC;
END-ISO-10303-21;
