ISO-10303-21;
HEADER;
/* Generated by software containing ST-Developer
 * from STEP Tools, Inc. (www.steptools.com) 
 */

FILE_DESCRIPTION(
/* description */ (''),
/* implementation_level */ '2;1');

FILE_NAME(
/* name */ 'E:\\stephane_larhant\\step\\chariot_mat_cliquet_bague.stp',

/* time_stamp */ '2021-03-29T18:22:27+02:00',
/* author */ ('Utilisateur'),
/* organization */ (''),
/* preprocessor_version */ 'ST-DEVELOPER v16.5',
/* originating_system */ 'Autodesk Inventor 2017',
/* authorisation */ '');

FILE_SCHEMA (('AUTOMOTIVE_DESIGN { 1 0 10303 214 3 1 1 }'));
ENDSEC;

DATA;
#10=MECHANICAL_DESIGN_GEOMETRIC_PRESENTATION_REPRESENTATION('',(#13),#627);
#11=SHAPE_REPRESENTATION_RELATIONSHIP('SRR','None',#636,#12);
#12=ADVANCED_BREP_SHAPE_REPRESENTATION('',(#14),#626);
#13=STYLED_ITEM('',(#645),#14);
#14=MANIFOLD_SOLID_BREP('Solide1',#360);
#15=LINE('',#544,#39);
#16=LINE('',#548,#40);
#17=LINE('',#553,#41);
#18=LINE('',#557,#42);
#19=LINE('',#562,#43);
#20=LINE('',#566,#44);
#21=LINE('',#571,#45);
#22=LINE('',#575,#46);
#23=LINE('',#580,#47);
#24=LINE('',#584,#48);
#25=LINE('',#589,#49);
#26=LINE('',#593,#50);
#27=LINE('',#596,#51);
#28=LINE('',#597,#52);
#29=LINE('',#598,#53);
#30=LINE('',#599,#54);
#31=LINE('',#600,#55);
#32=LINE('',#601,#56);
#33=LINE('',#605,#57);
#34=LINE('',#607,#58);
#35=LINE('',#608,#59);
#36=LINE('',#609,#60);
#37=LINE('',#610,#61);
#38=LINE('',#611,#62);
#39=VECTOR('',#437,10.);
#40=VECTOR('',#440,10.);
#41=VECTOR('',#445,10.);
#42=VECTOR('',#448,10.);
#43=VECTOR('',#453,10.);
#44=VECTOR('',#456,10.);
#45=VECTOR('',#461,10.);
#46=VECTOR('',#464,10.);
#47=VECTOR('',#469,10.);
#48=VECTOR('',#472,10.);
#49=VECTOR('',#477,10.);
#50=VECTOR('',#480,10.);
#51=VECTOR('',#485,10.);
#52=VECTOR('',#486,10.);
#53=VECTOR('',#487,10.);
#54=VECTOR('',#488,10.);
#55=VECTOR('',#489,10.);
#56=VECTOR('',#490,10.);
#57=VECTOR('',#495,10.);
#58=VECTOR('',#498,10.);
#59=VECTOR('',#499,10.);
#60=VECTOR('',#500,10.);
#61=VECTOR('',#501,10.);
#62=VECTOR('',#502,10.);
#63=PLANE('',#373);
#64=PLANE('',#378);
#65=PLANE('',#397);
#66=PLANE('',#399);
#67=PLANE('',#400);
#68=PLANE('',#401);
#69=PLANE('',#402);
#70=PLANE('',#403);
#71=PLANE('',#404);
#72=PLANE('',#405);
#73=PLANE('',#406);
#74=CYLINDRICAL_SURFACE('',#371,6.);
#75=CYLINDRICAL_SURFACE('',#375,5.4);
#76=CYLINDRICAL_SURFACE('',#379,7.5);
#77=CYLINDRICAL_SURFACE('',#382,7.5);
#78=CYLINDRICAL_SURFACE('',#385,7.5);
#79=CYLINDRICAL_SURFACE('',#388,7.5);
#80=CYLINDRICAL_SURFACE('',#391,7.5);
#81=CYLINDRICAL_SURFACE('',#394,7.5);
#82=CYLINDRICAL_SURFACE('',#409,3.1);
#83=CYLINDRICAL_SURFACE('',#410,5.);
#84=FACE_BOUND('',#117,.T.);
#85=FACE_BOUND('',#119,.T.);
#86=FACE_BOUND('',#121,.T.);
#87=FACE_BOUND('',#123,.T.);
#88=FACE_BOUND('',#125,.T.);
#89=FACE_BOUND('',#133,.T.);
#90=FACE_BOUND('',#136,.T.);
#91=FACE_BOUND('',#143,.T.);
#92=FACE_BOUND('',#145,.T.);
#93=FACE_BOUND('',#147,.T.);
#94=FACE_OUTER_BOUND('',#116,.T.);
#95=FACE_OUTER_BOUND('',#118,.T.);
#96=FACE_OUTER_BOUND('',#120,.T.);
#97=FACE_OUTER_BOUND('',#122,.T.);
#98=FACE_OUTER_BOUND('',#124,.T.);
#99=FACE_OUTER_BOUND('',#126,.T.);
#100=FACE_OUTER_BOUND('',#127,.T.);
#101=FACE_OUTER_BOUND('',#128,.T.);
#102=FACE_OUTER_BOUND('',#129,.T.);
#103=FACE_OUTER_BOUND('',#130,.T.);
#104=FACE_OUTER_BOUND('',#131,.T.);
#105=FACE_OUTER_BOUND('',#132,.T.);
#106=FACE_OUTER_BOUND('',#134,.T.);
#107=FACE_OUTER_BOUND('',#135,.T.);
#108=FACE_OUTER_BOUND('',#137,.T.);
#109=FACE_OUTER_BOUND('',#138,.T.);
#110=FACE_OUTER_BOUND('',#139,.T.);
#111=FACE_OUTER_BOUND('',#140,.T.);
#112=FACE_OUTER_BOUND('',#141,.T.);
#113=FACE_OUTER_BOUND('',#142,.T.);
#114=FACE_OUTER_BOUND('',#144,.T.);
#115=FACE_OUTER_BOUND('',#146,.T.);
#116=EDGE_LOOP('',(#247));
#117=EDGE_LOOP('',(#248));
#118=EDGE_LOOP('',(#249));
#119=EDGE_LOOP('',(#250));
#120=EDGE_LOOP('',(#251));
#121=EDGE_LOOP('',(#252));
#122=EDGE_LOOP('',(#253));
#123=EDGE_LOOP('',(#254));
#124=EDGE_LOOP('',(#255));
#125=EDGE_LOOP('',(#256));
#126=EDGE_LOOP('',(#257,#258,#259,#260));
#127=EDGE_LOOP('',(#261,#262,#263,#264));
#128=EDGE_LOOP('',(#265,#266,#267,#268));
#129=EDGE_LOOP('',(#269,#270,#271,#272));
#130=EDGE_LOOP('',(#273,#274,#275,#276));
#131=EDGE_LOOP('',(#277,#278,#279,#280));
#132=EDGE_LOOP('',(#281,#282,#283,#284,#285,#286,#287,#288,#289,#290,#291,
#292));
#133=EDGE_LOOP('',(#293));
#134=EDGE_LOOP('',(#294,#295,#296,#297));
#135=EDGE_LOOP('',(#298,#299,#300,#301,#302,#303,#304,#305,#306,#307,#308,
#309));
#136=EDGE_LOOP('',(#310));
#137=EDGE_LOOP('',(#311,#312,#313,#314));
#138=EDGE_LOOP('',(#315,#316,#317,#318));
#139=EDGE_LOOP('',(#319,#320,#321,#322));
#140=EDGE_LOOP('',(#323,#324,#325,#326));
#141=EDGE_LOOP('',(#327,#328,#329,#330));
#142=EDGE_LOOP('',(#331));
#143=EDGE_LOOP('',(#332));
#144=EDGE_LOOP('',(#333));
#145=EDGE_LOOP('',(#334));
#146=EDGE_LOOP('',(#335));
#147=EDGE_LOOP('',(#336));
#148=CIRCLE('',#369,6.);
#149=CIRCLE('',#370,5.5);
#150=CIRCLE('',#372,6.);
#151=CIRCLE('',#374,5.);
#152=CIRCLE('',#376,5.4);
#153=CIRCLE('',#377,5.4);
#154=CIRCLE('',#380,7.5);
#155=CIRCLE('',#381,7.5);
#156=CIRCLE('',#383,7.5);
#157=CIRCLE('',#384,7.5);
#158=CIRCLE('',#386,7.5);
#159=CIRCLE('',#387,7.5);
#160=CIRCLE('',#389,7.5);
#161=CIRCLE('',#390,7.5);
#162=CIRCLE('',#392,7.5);
#163=CIRCLE('',#393,7.5);
#164=CIRCLE('',#395,7.5);
#165=CIRCLE('',#396,7.5);
#166=CIRCLE('',#398,3.1);
#167=CIRCLE('',#407,5.);
#168=CIRCLE('',#408,3.1);
#169=VERTEX_POINT('',#525);
#170=VERTEX_POINT('',#527);
#171=VERTEX_POINT('',#530);
#172=VERTEX_POINT('',#533);
#173=VERTEX_POINT('',#536);
#174=VERTEX_POINT('',#538);
#175=VERTEX_POINT('',#542);
#176=VERTEX_POINT('',#543);
#177=VERTEX_POINT('',#545);
#178=VERTEX_POINT('',#547);
#179=VERTEX_POINT('',#551);
#180=VERTEX_POINT('',#552);
#181=VERTEX_POINT('',#554);
#182=VERTEX_POINT('',#556);
#183=VERTEX_POINT('',#560);
#184=VERTEX_POINT('',#561);
#185=VERTEX_POINT('',#563);
#186=VERTEX_POINT('',#565);
#187=VERTEX_POINT('',#569);
#188=VERTEX_POINT('',#570);
#189=VERTEX_POINT('',#572);
#190=VERTEX_POINT('',#574);
#191=VERTEX_POINT('',#578);
#192=VERTEX_POINT('',#579);
#193=VERTEX_POINT('',#581);
#194=VERTEX_POINT('',#583);
#195=VERTEX_POINT('',#587);
#196=VERTEX_POINT('',#588);
#197=VERTEX_POINT('',#590);
#198=VERTEX_POINT('',#592);
#199=VERTEX_POINT('',#602);
#200=VERTEX_POINT('',#618);
#201=VERTEX_POINT('',#620);
#202=EDGE_CURVE('',#169,#169,#148,.T.);
#203=EDGE_CURVE('',#170,#170,#149,.T.);
#204=EDGE_CURVE('',#171,#171,#150,.T.);
#205=EDGE_CURVE('',#172,#172,#151,.T.);
#206=EDGE_CURVE('',#173,#173,#152,.T.);
#207=EDGE_CURVE('',#174,#174,#153,.T.);
#208=EDGE_CURVE('',#175,#176,#15,.T.);
#209=EDGE_CURVE('',#177,#175,#154,.T.);
#210=EDGE_CURVE('',#178,#177,#16,.T.);
#211=EDGE_CURVE('',#176,#178,#155,.T.);
#212=EDGE_CURVE('',#179,#180,#17,.T.);
#213=EDGE_CURVE('',#181,#179,#156,.T.);
#214=EDGE_CURVE('',#182,#181,#18,.T.);
#215=EDGE_CURVE('',#180,#182,#157,.T.);
#216=EDGE_CURVE('',#183,#184,#19,.T.);
#217=EDGE_CURVE('',#185,#183,#158,.T.);
#218=EDGE_CURVE('',#186,#185,#20,.T.);
#219=EDGE_CURVE('',#184,#186,#159,.T.);
#220=EDGE_CURVE('',#187,#188,#21,.T.);
#221=EDGE_CURVE('',#189,#187,#160,.T.);
#222=EDGE_CURVE('',#190,#189,#22,.T.);
#223=EDGE_CURVE('',#188,#190,#161,.T.);
#224=EDGE_CURVE('',#191,#192,#23,.T.);
#225=EDGE_CURVE('',#193,#191,#162,.T.);
#226=EDGE_CURVE('',#194,#193,#24,.T.);
#227=EDGE_CURVE('',#192,#194,#163,.T.);
#228=EDGE_CURVE('',#195,#196,#25,.T.);
#229=EDGE_CURVE('',#197,#195,#164,.T.);
#230=EDGE_CURVE('',#198,#197,#26,.T.);
#231=EDGE_CURVE('',#196,#198,#165,.T.);
#232=EDGE_CURVE('',#198,#176,#27,.T.);
#233=EDGE_CURVE('',#178,#180,#28,.T.);
#234=EDGE_CURVE('',#182,#184,#29,.T.);
#235=EDGE_CURVE('',#186,#188,#30,.T.);
#236=EDGE_CURVE('',#190,#192,#31,.T.);
#237=EDGE_CURVE('',#194,#196,#32,.T.);
#238=EDGE_CURVE('',#199,#199,#166,.T.);
#239=EDGE_CURVE('',#175,#197,#33,.T.);
#240=EDGE_CURVE('',#195,#193,#34,.T.);
#241=EDGE_CURVE('',#191,#189,#35,.T.);
#242=EDGE_CURVE('',#187,#185,#36,.T.);
#243=EDGE_CURVE('',#183,#181,#37,.T.);
#244=EDGE_CURVE('',#179,#177,#38,.T.);
#245=EDGE_CURVE('',#200,#200,#167,.T.);
#246=EDGE_CURVE('',#201,#201,#168,.T.);
#247=ORIENTED_EDGE('',*,*,#202,.T.);
#248=ORIENTED_EDGE('',*,*,#203,.T.);
#249=ORIENTED_EDGE('',*,*,#204,.T.);
#250=ORIENTED_EDGE('',*,*,#202,.F.);
#251=ORIENTED_EDGE('',*,*,#203,.F.);
#252=ORIENTED_EDGE('',*,*,#205,.T.);
#253=ORIENTED_EDGE('',*,*,#206,.T.);
#254=ORIENTED_EDGE('',*,*,#207,.T.);
#255=ORIENTED_EDGE('',*,*,#204,.F.);
#256=ORIENTED_EDGE('',*,*,#206,.F.);
#257=ORIENTED_EDGE('',*,*,#208,.F.);
#258=ORIENTED_EDGE('',*,*,#209,.F.);
#259=ORIENTED_EDGE('',*,*,#210,.F.);
#260=ORIENTED_EDGE('',*,*,#211,.F.);
#261=ORIENTED_EDGE('',*,*,#212,.F.);
#262=ORIENTED_EDGE('',*,*,#213,.F.);
#263=ORIENTED_EDGE('',*,*,#214,.F.);
#264=ORIENTED_EDGE('',*,*,#215,.F.);
#265=ORIENTED_EDGE('',*,*,#216,.F.);
#266=ORIENTED_EDGE('',*,*,#217,.F.);
#267=ORIENTED_EDGE('',*,*,#218,.F.);
#268=ORIENTED_EDGE('',*,*,#219,.F.);
#269=ORIENTED_EDGE('',*,*,#220,.F.);
#270=ORIENTED_EDGE('',*,*,#221,.F.);
#271=ORIENTED_EDGE('',*,*,#222,.F.);
#272=ORIENTED_EDGE('',*,*,#223,.F.);
#273=ORIENTED_EDGE('',*,*,#224,.F.);
#274=ORIENTED_EDGE('',*,*,#225,.F.);
#275=ORIENTED_EDGE('',*,*,#226,.F.);
#276=ORIENTED_EDGE('',*,*,#227,.F.);
#277=ORIENTED_EDGE('',*,*,#228,.F.);
#278=ORIENTED_EDGE('',*,*,#229,.F.);
#279=ORIENTED_EDGE('',*,*,#230,.F.);
#280=ORIENTED_EDGE('',*,*,#231,.F.);
#281=ORIENTED_EDGE('',*,*,#231,.T.);
#282=ORIENTED_EDGE('',*,*,#232,.T.);
#283=ORIENTED_EDGE('',*,*,#211,.T.);
#284=ORIENTED_EDGE('',*,*,#233,.T.);
#285=ORIENTED_EDGE('',*,*,#215,.T.);
#286=ORIENTED_EDGE('',*,*,#234,.T.);
#287=ORIENTED_EDGE('',*,*,#219,.T.);
#288=ORIENTED_EDGE('',*,*,#235,.T.);
#289=ORIENTED_EDGE('',*,*,#223,.T.);
#290=ORIENTED_EDGE('',*,*,#236,.T.);
#291=ORIENTED_EDGE('',*,*,#227,.T.);
#292=ORIENTED_EDGE('',*,*,#237,.T.);
#293=ORIENTED_EDGE('',*,*,#238,.T.);
#294=ORIENTED_EDGE('',*,*,#230,.T.);
#295=ORIENTED_EDGE('',*,*,#239,.F.);
#296=ORIENTED_EDGE('',*,*,#208,.T.);
#297=ORIENTED_EDGE('',*,*,#232,.F.);
#298=ORIENTED_EDGE('',*,*,#229,.T.);
#299=ORIENTED_EDGE('',*,*,#240,.T.);
#300=ORIENTED_EDGE('',*,*,#225,.T.);
#301=ORIENTED_EDGE('',*,*,#241,.T.);
#302=ORIENTED_EDGE('',*,*,#221,.T.);
#303=ORIENTED_EDGE('',*,*,#242,.T.);
#304=ORIENTED_EDGE('',*,*,#217,.T.);
#305=ORIENTED_EDGE('',*,*,#243,.T.);
#306=ORIENTED_EDGE('',*,*,#213,.T.);
#307=ORIENTED_EDGE('',*,*,#244,.T.);
#308=ORIENTED_EDGE('',*,*,#209,.T.);
#309=ORIENTED_EDGE('',*,*,#239,.T.);
#310=ORIENTED_EDGE('',*,*,#207,.F.);
#311=ORIENTED_EDGE('',*,*,#228,.T.);
#312=ORIENTED_EDGE('',*,*,#237,.F.);
#313=ORIENTED_EDGE('',*,*,#226,.T.);
#314=ORIENTED_EDGE('',*,*,#240,.F.);
#315=ORIENTED_EDGE('',*,*,#224,.T.);
#316=ORIENTED_EDGE('',*,*,#236,.F.);
#317=ORIENTED_EDGE('',*,*,#222,.T.);
#318=ORIENTED_EDGE('',*,*,#241,.F.);
#319=ORIENTED_EDGE('',*,*,#220,.T.);
#320=ORIENTED_EDGE('',*,*,#235,.F.);
#321=ORIENTED_EDGE('',*,*,#218,.T.);
#322=ORIENTED_EDGE('',*,*,#242,.F.);
#323=ORIENTED_EDGE('',*,*,#216,.T.);
#324=ORIENTED_EDGE('',*,*,#234,.F.);
#325=ORIENTED_EDGE('',*,*,#214,.T.);
#326=ORIENTED_EDGE('',*,*,#243,.F.);
#327=ORIENTED_EDGE('',*,*,#212,.T.);
#328=ORIENTED_EDGE('',*,*,#233,.F.);
#329=ORIENTED_EDGE('',*,*,#210,.T.);
#330=ORIENTED_EDGE('',*,*,#244,.F.);
#331=ORIENTED_EDGE('',*,*,#245,.F.);
#332=ORIENTED_EDGE('',*,*,#246,.T.);
#333=ORIENTED_EDGE('',*,*,#238,.F.);
#334=ORIENTED_EDGE('',*,*,#246,.F.);
#335=ORIENTED_EDGE('',*,*,#245,.T.);
#336=ORIENTED_EDGE('',*,*,#205,.F.);
#337=CONICAL_SURFACE('',#368,5.75,45.);
#338=ADVANCED_FACE('',(#94,#84),#337,.T.);
#339=ADVANCED_FACE('',(#95,#85),#74,.T.);
#340=ADVANCED_FACE('',(#96,#86),#63,.F.);
#341=ADVANCED_FACE('',(#97,#87),#75,.T.);
#342=ADVANCED_FACE('',(#98,#88),#64,.T.);
#343=ADVANCED_FACE('',(#99),#76,.T.);
#344=ADVANCED_FACE('',(#100),#77,.T.);
#345=ADVANCED_FACE('',(#101),#78,.T.);
#346=ADVANCED_FACE('',(#102),#79,.T.);
#347=ADVANCED_FACE('',(#103),#80,.T.);
#348=ADVANCED_FACE('',(#104),#81,.T.);
#349=ADVANCED_FACE('',(#105,#89),#65,.T.);
#350=ADVANCED_FACE('',(#106),#66,.T.);
#351=ADVANCED_FACE('',(#107,#90),#67,.F.);
#352=ADVANCED_FACE('',(#108),#68,.T.);
#353=ADVANCED_FACE('',(#109),#69,.T.);
#354=ADVANCED_FACE('',(#110),#70,.T.);
#355=ADVANCED_FACE('',(#111),#71,.T.);
#356=ADVANCED_FACE('',(#112),#72,.T.);
#357=ADVANCED_FACE('',(#113,#91),#73,.F.);
#358=ADVANCED_FACE('',(#114,#92),#82,.F.);
#359=ADVANCED_FACE('',(#115,#93),#83,.F.);
#360=CLOSED_SHELL('',(#338,#339,#340,#341,#342,#343,#344,#345,#346,#347,
#348,#349,#350,#351,#352,#353,#354,#355,#356,#357,#358,#359));
#361=DATE_TIME_ROLE('creation_date');
#362=APPLIED_DATE_AND_TIME_ASSIGNMENT(#363,#361,(#638));
#363=DATE_AND_TIME(#364,#365);
#364=CALENDAR_DATE(2021,10,2);
#365=LOCAL_TIME(18,44,59.,#366);
#366=COORDINATED_UNIVERSAL_TIME_OFFSET(0,0,.BEHIND.);
#367=AXIS2_PLACEMENT_3D('placement',#523,#411,#412);
#368=AXIS2_PLACEMENT_3D('',#524,#413,#414);
#369=AXIS2_PLACEMENT_3D('',#526,#415,#416);
#370=AXIS2_PLACEMENT_3D('',#528,#417,#418);
#371=AXIS2_PLACEMENT_3D('',#529,#419,#420);
#372=AXIS2_PLACEMENT_3D('',#531,#421,#422);
#373=AXIS2_PLACEMENT_3D('',#532,#423,#424);
#374=AXIS2_PLACEMENT_3D('',#534,#425,#426);
#375=AXIS2_PLACEMENT_3D('',#535,#427,#428);
#376=AXIS2_PLACEMENT_3D('',#537,#429,#430);
#377=AXIS2_PLACEMENT_3D('',#539,#431,#432);
#378=AXIS2_PLACEMENT_3D('',#540,#433,#434);
#379=AXIS2_PLACEMENT_3D('',#541,#435,#436);
#380=AXIS2_PLACEMENT_3D('',#546,#438,#439);
#381=AXIS2_PLACEMENT_3D('',#549,#441,#442);
#382=AXIS2_PLACEMENT_3D('',#550,#443,#444);
#383=AXIS2_PLACEMENT_3D('',#555,#446,#447);
#384=AXIS2_PLACEMENT_3D('',#558,#449,#450);
#385=AXIS2_PLACEMENT_3D('',#559,#451,#452);
#386=AXIS2_PLACEMENT_3D('',#564,#454,#455);
#387=AXIS2_PLACEMENT_3D('',#567,#457,#458);
#388=AXIS2_PLACEMENT_3D('',#568,#459,#460);
#389=AXIS2_PLACEMENT_3D('',#573,#462,#463);
#390=AXIS2_PLACEMENT_3D('',#576,#465,#466);
#391=AXIS2_PLACEMENT_3D('',#577,#467,#468);
#392=AXIS2_PLACEMENT_3D('',#582,#470,#471);
#393=AXIS2_PLACEMENT_3D('',#585,#473,#474);
#394=AXIS2_PLACEMENT_3D('',#586,#475,#476);
#395=AXIS2_PLACEMENT_3D('',#591,#478,#479);
#396=AXIS2_PLACEMENT_3D('',#594,#481,#482);
#397=AXIS2_PLACEMENT_3D('',#595,#483,#484);
#398=AXIS2_PLACEMENT_3D('',#603,#491,#492);
#399=AXIS2_PLACEMENT_3D('',#604,#493,#494);
#400=AXIS2_PLACEMENT_3D('',#606,#496,#497);
#401=AXIS2_PLACEMENT_3D('',#612,#503,#504);
#402=AXIS2_PLACEMENT_3D('',#613,#505,#506);
#403=AXIS2_PLACEMENT_3D('',#614,#507,#508);
#404=AXIS2_PLACEMENT_3D('',#615,#509,#510);
#405=AXIS2_PLACEMENT_3D('',#616,#511,#512);
#406=AXIS2_PLACEMENT_3D('',#617,#513,#514);
#407=AXIS2_PLACEMENT_3D('',#619,#515,#516);
#408=AXIS2_PLACEMENT_3D('',#621,#517,#518);
#409=AXIS2_PLACEMENT_3D('',#622,#519,#520);
#410=AXIS2_PLACEMENT_3D('',#623,#521,#522);
#411=DIRECTION('axis',(0.,0.,1.));
#412=DIRECTION('refdir',(1.,0.,0.));
#413=DIRECTION('center_axis',(0.,0.,1.));
#414=DIRECTION('ref_axis',(-1.,0.,0.));
#415=DIRECTION('center_axis',(0.,0.,-1.));
#416=DIRECTION('ref_axis',(-1.,0.,0.));
#417=DIRECTION('center_axis',(0.,0.,1.));
#418=DIRECTION('ref_axis',(-1.,0.,0.));
#419=DIRECTION('center_axis',(0.,0.,1.));
#420=DIRECTION('ref_axis',(-1.,0.,0.));
#421=DIRECTION('center_axis',(0.,0.,-1.));
#422=DIRECTION('ref_axis',(-1.,0.,0.));
#423=DIRECTION('center_axis',(0.,0.,1.));
#424=DIRECTION('ref_axis',(1.,0.,0.));
#425=DIRECTION('center_axis',(0.,0.,1.));
#426=DIRECTION('ref_axis',(-1.,0.,0.));
#427=DIRECTION('center_axis',(0.,0.,-1.));
#428=DIRECTION('ref_axis',(1.,0.,0.));
#429=DIRECTION('center_axis',(0.,0.,1.));
#430=DIRECTION('ref_axis',(1.,0.,0.));
#431=DIRECTION('center_axis',(0.,0.,-1.));
#432=DIRECTION('ref_axis',(1.,0.,0.));
#433=DIRECTION('center_axis',(0.,0.,1.));
#434=DIRECTION('ref_axis',(1.,0.,0.));
#435=DIRECTION('center_axis',(0.,0.,-1.));
#436=DIRECTION('ref_axis',(-1.,0.,0.));
#437=DIRECTION('',(0.,0.,1.));
#438=DIRECTION('center_axis',(0.,0.,-1.));
#439=DIRECTION('ref_axis',(-1.,0.,0.));
#440=DIRECTION('',(0.,0.,-1.));
#441=DIRECTION('center_axis',(0.,0.,1.));
#442=DIRECTION('ref_axis',(-1.,0.,0.));
#443=DIRECTION('center_axis',(0.,0.,-1.));
#444=DIRECTION('ref_axis',(-1.,0.,0.));
#445=DIRECTION('',(0.,0.,1.));
#446=DIRECTION('center_axis',(0.,0.,-1.));
#447=DIRECTION('ref_axis',(-1.,0.,0.));
#448=DIRECTION('',(0.,0.,-1.));
#449=DIRECTION('center_axis',(0.,0.,1.));
#450=DIRECTION('ref_axis',(-1.,0.,0.));
#451=DIRECTION('center_axis',(0.,0.,-1.));
#452=DIRECTION('ref_axis',(-1.,0.,0.));
#453=DIRECTION('',(0.,0.,1.));
#454=DIRECTION('center_axis',(0.,0.,-1.));
#455=DIRECTION('ref_axis',(-1.,0.,0.));
#456=DIRECTION('',(0.,0.,-1.));
#457=DIRECTION('center_axis',(0.,0.,1.));
#458=DIRECTION('ref_axis',(-1.,0.,0.));
#459=DIRECTION('center_axis',(0.,0.,-1.));
#460=DIRECTION('ref_axis',(-1.,0.,0.));
#461=DIRECTION('',(0.,0.,1.));
#462=DIRECTION('center_axis',(0.,0.,-1.));
#463=DIRECTION('ref_axis',(-1.,0.,0.));
#464=DIRECTION('',(0.,0.,-1.));
#465=DIRECTION('center_axis',(0.,0.,1.));
#466=DIRECTION('ref_axis',(-1.,0.,0.));
#467=DIRECTION('center_axis',(0.,0.,-1.));
#468=DIRECTION('ref_axis',(-1.,0.,0.));
#469=DIRECTION('',(0.,0.,1.));
#470=DIRECTION('center_axis',(0.,0.,-1.));
#471=DIRECTION('ref_axis',(-1.,0.,0.));
#472=DIRECTION('',(0.,0.,-1.));
#473=DIRECTION('center_axis',(0.,0.,1.));
#474=DIRECTION('ref_axis',(-1.,0.,0.));
#475=DIRECTION('center_axis',(0.,0.,-1.));
#476=DIRECTION('ref_axis',(-1.,0.,0.));
#477=DIRECTION('',(0.,0.,1.));
#478=DIRECTION('center_axis',(0.,0.,-1.));
#479=DIRECTION('ref_axis',(-1.,0.,0.));
#480=DIRECTION('',(0.,0.,-1.));
#481=DIRECTION('center_axis',(0.,0.,1.));
#482=DIRECTION('ref_axis',(-1.,0.,0.));
#483=DIRECTION('center_axis',(0.,0.,1.));
#484=DIRECTION('ref_axis',(1.,0.,0.));
#485=DIRECTION('',(4.12063432796478E-16,1.,0.));
#486=DIRECTION('',(-0.866025403784439,0.5,0.));
#487=DIRECTION('',(-0.866025403784439,-0.5,0.));
#488=DIRECTION('',(0.,-1.,0.));
#489=DIRECTION('',(0.866025403784439,-0.5,0.));
#490=DIRECTION('',(0.866025403784439,0.5,0.));
#491=DIRECTION('center_axis',(0.,0.,-1.));
#492=DIRECTION('ref_axis',(-1.,0.,0.));
#493=DIRECTION('center_axis',(1.,-4.12063432796478E-16,0.));
#494=DIRECTION('ref_axis',(4.44089209850063E-16,1.,0.));
#495=DIRECTION('',(-4.12063432796478E-16,-1.,0.));
#496=DIRECTION('center_axis',(0.,0.,1.));
#497=DIRECTION('ref_axis',(1.,0.,0.));
#498=DIRECTION('',(-0.866025403784439,-0.5,0.));
#499=DIRECTION('',(-0.866025403784439,0.5,0.));
#500=DIRECTION('',(0.,1.,0.));
#501=DIRECTION('',(0.866025403784439,0.5,0.));
#502=DIRECTION('',(0.866025403784439,-0.5,0.));
#503=DIRECTION('center_axis',(0.5,-0.866025403784439,0.));
#504=DIRECTION('ref_axis',(0.866025403784439,0.5,0.));
#505=DIRECTION('center_axis',(-0.5,-0.866025403784439,0.));
#506=DIRECTION('ref_axis',(0.866025403784439,-0.5,0.));
#507=DIRECTION('center_axis',(-1.,0.,0.));
#508=DIRECTION('ref_axis',(0.,-1.,0.));
#509=DIRECTION('center_axis',(-0.5,0.866025403784439,0.));
#510=DIRECTION('ref_axis',(-0.866025403784439,-0.5,0.));
#511=DIRECTION('center_axis',(0.5,0.866025403784439,0.));
#512=DIRECTION('ref_axis',(-0.866025403784439,0.5,0.));
#513=DIRECTION('center_axis',(0.,0.,1.));
#514=DIRECTION('ref_axis',(1.,0.,0.));
#515=DIRECTION('center_axis',(0.,0.,1.));
#516=DIRECTION('ref_axis',(-1.,0.,0.));
#517=DIRECTION('center_axis',(0.,0.,1.));
#518=DIRECTION('ref_axis',(-1.,0.,0.));
#519=DIRECTION('center_axis',(0.,0.,-1.));
#520=DIRECTION('ref_axis',(-1.,0.,0.));
#521=DIRECTION('center_axis',(0.,0.,-1.));
#522=DIRECTION('ref_axis',(-1.,0.,0.));
#523=CARTESIAN_POINT('',(0.,0.,0.));
#524=CARTESIAN_POINT('Origin',(0.,0.,0.25));
#525=CARTESIAN_POINT('',(6.,-7.34788079488412E-16,0.5));
#526=CARTESIAN_POINT('Origin',(0.,0.,0.5));
#527=CARTESIAN_POINT('',(5.5,6.73555739531044E-16,0.));
#528=CARTESIAN_POINT('Origin',(0.,0.,0.));
#529=CARTESIAN_POINT('Origin',(0.,0.,0.));
#530=CARTESIAN_POINT('',(-6.,7.34788079488412E-16,12.));
#531=CARTESIAN_POINT('Origin',(0.,0.,12.));
#532=CARTESIAN_POINT('Origin',(-6.78022909193566E-16,1.54197642309049E-16,
0.));
#533=CARTESIAN_POINT('',(5.,6.12323399573677E-16,0.));
#534=CARTESIAN_POINT('Origin',(0.,0.,0.));
#535=CARTESIAN_POINT('Origin',(0.,0.,15.));
#536=CARTESIAN_POINT('',(-5.4,6.61309271539571E-16,12.));
#537=CARTESIAN_POINT('Origin',(0.,0.,12.));
#538=CARTESIAN_POINT('',(-5.4,6.61309271539571E-16,15.));
#539=CARTESIAN_POINT('Origin',(0.,0.,15.));
#540=CARTESIAN_POINT('Origin',(6.78022909193566E-16,1.54197642309049E-16,
12.));
#541=CARTESIAN_POINT('Origin',(0.,0.,18.));
#542=CARTESIAN_POINT('',(7.,2.69258240356725,15.));
#543=CARTESIAN_POINT('',(7.,2.69258240356725,18.));
#544=CARTESIAN_POINT('',(7.,2.69258240356725,18.));
#545=CARTESIAN_POINT('',(5.8318447632722,4.71588662470745,15.));
#546=CARTESIAN_POINT('Origin',(0.,0.,15.));
#547=CARTESIAN_POINT('',(5.8318447632722,4.71588662470745,18.));
#548=CARTESIAN_POINT('',(5.8318447632722,4.71588662470745,18.));
#549=CARTESIAN_POINT('Origin',(0.,0.,18.));
#550=CARTESIAN_POINT('Origin',(0.,0.,18.));
#551=CARTESIAN_POINT('',(1.1681552367278,7.4084690282747,15.));
#552=CARTESIAN_POINT('',(1.1681552367278,7.4084690282747,18.));
#553=CARTESIAN_POINT('',(1.1681552367278,7.4084690282747,18.));
#554=CARTESIAN_POINT('',(-1.1681552367278,7.40846902827469,15.));
#555=CARTESIAN_POINT('Origin',(0.,0.,15.));
#556=CARTESIAN_POINT('',(-1.1681552367278,7.40846902827469,18.));
#557=CARTESIAN_POINT('',(-1.1681552367278,7.40846902827469,18.));
#558=CARTESIAN_POINT('Origin',(0.,0.,18.));
#559=CARTESIAN_POINT('Origin',(0.,0.,18.));
#560=CARTESIAN_POINT('',(-5.8318447632722,4.71588662470745,15.));
#561=CARTESIAN_POINT('',(-5.8318447632722,4.71588662470745,18.));
#562=CARTESIAN_POINT('',(-5.8318447632722,4.71588662470745,18.));
#563=CARTESIAN_POINT('',(-7.,2.69258240356726,15.));
#564=CARTESIAN_POINT('Origin',(0.,0.,15.));
#565=CARTESIAN_POINT('',(-7.,2.69258240356726,18.));
#566=CARTESIAN_POINT('',(-7.,2.69258240356726,18.));
#567=CARTESIAN_POINT('Origin',(0.,0.,18.));
#568=CARTESIAN_POINT('Origin',(0.,0.,18.));
#569=CARTESIAN_POINT('',(-7.,-2.69258240356726,15.));
#570=CARTESIAN_POINT('',(-7.,-2.69258240356726,18.));
#571=CARTESIAN_POINT('',(-7.,-2.69258240356726,18.));
#572=CARTESIAN_POINT('',(-5.83184476327221,-4.71588662470743,15.));
#573=CARTESIAN_POINT('Origin',(0.,0.,15.));
#574=CARTESIAN_POINT('',(-5.83184476327221,-4.71588662470743,18.));
#575=CARTESIAN_POINT('',(-5.83184476327221,-4.71588662470743,18.));
#576=CARTESIAN_POINT('Origin',(0.,0.,18.));
#577=CARTESIAN_POINT('Origin',(0.,0.,18.));
#578=CARTESIAN_POINT('',(-1.16815523672778,-7.4084690282747,15.));
#579=CARTESIAN_POINT('',(-1.16815523672778,-7.4084690282747,18.));
#580=CARTESIAN_POINT('',(-1.16815523672778,-7.4084690282747,18.));
#581=CARTESIAN_POINT('',(1.16815523672779,-7.4084690282747,15.));
#582=CARTESIAN_POINT('Origin',(0.,0.,15.));
#583=CARTESIAN_POINT('',(1.16815523672778,-7.4084690282747,18.));
#584=CARTESIAN_POINT('',(1.16815523672778,-7.4084690282747,18.));
#585=CARTESIAN_POINT('Origin',(0.,0.,18.));
#586=CARTESIAN_POINT('Origin',(0.,0.,18.));
#587=CARTESIAN_POINT('',(5.83184476327221,-4.71588662470744,15.));
#588=CARTESIAN_POINT('',(5.83184476327221,-4.71588662470744,18.));
#589=CARTESIAN_POINT('',(5.83184476327221,-4.71588662470744,18.));
#590=CARTESIAN_POINT('',(7.,-2.69258240356726,15.));
#591=CARTESIAN_POINT('Origin',(0.,0.,15.));
#592=CARTESIAN_POINT('',(7.,-2.69258240356725,18.));
#593=CARTESIAN_POINT('',(7.,-2.69258240356725,18.));
#594=CARTESIAN_POINT('Origin',(0.,0.,18.));
#595=CARTESIAN_POINT('Origin',(9.44312033491929E-16,3.33066907387547E-15,
18.));
#596=CARTESIAN_POINT('',(7.,4.04145188432738,18.));
#597=CARTESIAN_POINT('',(-9.08521188643465E-16,8.08290376865476,18.));
#598=CARTESIAN_POINT('',(-7.,4.04145188432738,18.));
#599=CARTESIAN_POINT('',(-7.,-4.04145188432738,18.));
#600=CARTESIAN_POINT('',(-9.92390001355157E-16,-8.08290376865476,18.));
#601=CARTESIAN_POINT('',(7.,-4.04145188432738,18.));
#602=CARTESIAN_POINT('',(3.1,3.7964050773568E-16,18.));
#603=CARTESIAN_POINT('Origin',(0.,0.,18.));
#604=CARTESIAN_POINT('Origin',(7.,-4.04145188432738,15.));
#605=CARTESIAN_POINT('',(7.,4.04145188432738,15.));
#606=CARTESIAN_POINT('Origin',(9.44312033491929E-16,3.60555503696918E-15,
15.));
#607=CARTESIAN_POINT('',(7.,-4.04145188432738,15.));
#608=CARTESIAN_POINT('',(-9.92390001355157E-16,-8.08290376865476,15.));
#609=CARTESIAN_POINT('',(-7.,-4.04145188432738,15.));
#610=CARTESIAN_POINT('',(-7.,4.04145188432738,15.));
#611=CARTESIAN_POINT('',(-9.08521188643465E-16,8.08290376865476,15.));
#612=CARTESIAN_POINT('Origin',(-1.11022302462516E-15,-8.08290376865476,
15.));
#613=CARTESIAN_POINT('Origin',(-7.,-4.04145188432737,15.));
#614=CARTESIAN_POINT('Origin',(-7.,4.04145188432738,15.));
#615=CARTESIAN_POINT('Origin',(0.,8.08290376865476,15.));
#616=CARTESIAN_POINT('Origin',(7.,4.04145188432738,15.));
#617=CARTESIAN_POINT('Origin',(-6.78022909193566E-16,1.54197642309049E-16,
12.));
#618=CARTESIAN_POINT('',(5.,6.12323399573677E-16,12.));
#619=CARTESIAN_POINT('Origin',(0.,0.,12.));
#620=CARTESIAN_POINT('',(3.1,3.7964050773568E-16,12.));
#621=CARTESIAN_POINT('Origin',(0.,0.,12.));
#622=CARTESIAN_POINT('Origin',(0.,0.,15.));
#623=CARTESIAN_POINT('Origin',(0.,0.,15.));
#624=UNCERTAINTY_MEASURE_WITH_UNIT(LENGTH_MEASURE(0.01),#628,
'DISTANCE_ACCURACY_VALUE',
'Maximum model space distance between geometric entities at asserted c
onnectivities');
#625=UNCERTAINTY_MEASURE_WITH_UNIT(LENGTH_MEASURE(1.E-6),#628,
'DISTANCE_ACCURACY_VALUE',
'Maximum model space distance between geometric entities at asserted c
onnectivities');
#626=(
GEOMETRIC_REPRESENTATION_CONTEXT(3)
GLOBAL_UNCERTAINTY_ASSIGNED_CONTEXT((#624))
GLOBAL_UNIT_ASSIGNED_CONTEXT((#628,#631,#629))
REPRESENTATION_CONTEXT('','3D')
);
#627=(
GEOMETRIC_REPRESENTATION_CONTEXT(3)
GLOBAL_UNCERTAINTY_ASSIGNED_CONTEXT((#625))
GLOBAL_UNIT_ASSIGNED_CONTEXT((#628,#631,#629))
REPRESENTATION_CONTEXT('','3D')
);
#628=(
LENGTH_UNIT()
NAMED_UNIT(*)
SI_UNIT(.MILLI.,.METRE.)
);
#629=(
NAMED_UNIT(*)
SI_UNIT($,.STERADIAN.)
SOLID_ANGLE_UNIT()
);
#630=DIMENSIONAL_EXPONENTS(0.,0.,0.,0.,0.,0.,0.);
#631=(
CONVERSION_BASED_UNIT('degree',#633)
NAMED_UNIT(#630)
PLANE_ANGLE_UNIT()
);
#632=(
NAMED_UNIT(*)
PLANE_ANGLE_UNIT()
SI_UNIT($,.RADIAN.)
);
#633=PLANE_ANGLE_MEASURE_WITH_UNIT(PLANE_ANGLE_MEASURE(0.01745329252),#632);
#634=SHAPE_DEFINITION_REPRESENTATION(#635,#636);
#635=PRODUCT_DEFINITION_SHAPE('',$,#638);
#636=SHAPE_REPRESENTATION('',(#367),#626);
#637=PRODUCT_DEFINITION_CONTEXT('part definition',#642,'design');
#638=PRODUCT_DEFINITION('chariot_mat_cliquet_bague',
'chariot_mat_cliquet_bague',#639,#637);
#639=PRODUCT_DEFINITION_FORMATION('',$,#644);
#640=PRODUCT_RELATED_PRODUCT_CATEGORY('chariot_mat_cliquet_bague',
'chariot_mat_cliquet_bague',(#644));
#641=APPLICATION_PROTOCOL_DEFINITION('international standard',
'automotive_design',2009,#642);
#642=APPLICATION_CONTEXT(
'Core Data for Automotive Mechanical Design Process');
#643=PRODUCT_CONTEXT('part definition',#642,'mechanical');
#644=PRODUCT('chariot_mat_cliquet_bague','chariot_mat_cliquet_bague',$,
(#643));
#645=PRESENTATION_STYLE_ASSIGNMENT((#646));
#646=SURFACE_STYLE_USAGE(.BOTH.,#647);
#647=SURFACE_SIDE_STYLE('',(#648));
#648=SURFACE_STYLE_FILL_AREA(#649);
#649=FILL_AREA_STYLE('',(#650));
#650=FILL_AREA_STYLE_COLOUR('',#651);
#651=COLOUR_RGB('',0.411764705882353,0.301960784313725,0.231372549019608);
ENDSEC;
END-ISO-10303-21;
