ISO-10303-21;
HEADER;
FILE_DESCRIPTION(('CATIA V5 STEP'),'2;1');

FILE_NAME('C:\\Users\\mokhefab\\OneDrive - Electrolux Professional\\2_PERSO\\Tente de toit\\rehausse .stp','2021-04-08T13:40:53+00:00',('none'),('Electrolux'),'CATIA Version 5-6 Release 2016 SP5','CATIA V5 STEP AP203','none');

FILE_SCHEMA(('CONFIG_CONTROL_DESIGN'));

ENDSEC;
DATA;
#5=PRODUCT('rehausse ','','',(#2)) ;
#1=APPLICATION_CONTEXT('configuration controlled 3D design of mechanical parts and assemblies') ;
#14=PRODUCT_DEFINITION('',' ',#6,#3) ;
#16=SECURITY_CLASSIFICATION(' ',' ',#15) ;
#15=SECURITY_CLASSIFICATION_LEVEL('unclassified') ;
#46=CARTESIAN_POINT(' ',(0.,0.,0.)) ;
#51=CARTESIAN_POINT('Axis2P3D Location',(15.,1.11022302463E-016,0.)) ;
#56=CARTESIAN_POINT('Line Origine',(9.75,-5.3191726709E-016,2.04920524993E-011)) ;
#60=CARTESIAN_POINT('Vertex',(9.75,-5.3191726709E-016,-32.5)) ;
#62=CARTESIAN_POINT('Vertex',(9.75,-5.3191726709E-016,25.5)) ;
#65=CARTESIAN_POINT('Axis2P3D Location',(15.,1.11022302463E-016,-32.5)) ;
#69=CARTESIAN_POINT('Vertex',(20.25,1.11022302463E-016,-32.5)) ;
#72=CARTESIAN_POINT('Line Origine',(20.25,1.39690144157E-015,2.04920524993E-011)) ;
#76=CARTESIAN_POINT('Vertex',(20.25,1.11022302463E-016,25.5)) ;
#79=CARTESIAN_POINT('Axis2P3D Location',(15.,1.11022302463E-016,25.5)) ;
#91=CARTESIAN_POINT('Axis2P3D Location',(0.,21.,25.5)) ;
#96=CARTESIAN_POINT('Line Origine',(45.,0.,25.5)) ;
#100=CARTESIAN_POINT('Vertex',(45.,-21.,25.5)) ;
#102=CARTESIAN_POINT('Vertex',(45.,21.,25.5)) ;
#105=CARTESIAN_POINT('Line Origine',(0.,21.,25.5)) ;
#109=CARTESIAN_POINT('Vertex',(-45.,21.,25.5)) ;
#112=CARTESIAN_POINT('Line Origine',(-45.,0.,25.5)) ;
#116=CARTESIAN_POINT('Vertex',(-45.,-21.,25.5)) ;
#119=CARTESIAN_POINT('Line Origine',(0.,-21.,25.5)) ;
#130=CARTESIAN_POINT('Axis2P3D Location',(15.,0.,25.5)) ;
#140=CARTESIAN_POINT('Axis2P3D Location',(15.,1.11022302463E-016,-32.5)) ;
#152=CARTESIAN_POINT('Axis2P3D Location',(45.,0.,0.)) ;
#157=CARTESIAN_POINT('Line Origine',(45.,-24.,32.5)) ;
#161=CARTESIAN_POINT('Vertex',(45.,-21.,32.5)) ;
#163=CARTESIAN_POINT('Vertex',(45.,-27.,32.5)) ;
#166=CARTESIAN_POINT('Line Origine',(45.,-27.,3.50000000002)) ;
#170=CARTESIAN_POINT('Vertex',(45.,-27.,-25.5)) ;
#173=CARTESIAN_POINT('Line Origine',(45.,-23.875,-25.5)) ;
#177=CARTESIAN_POINT('Vertex',(45.,-20.75,-25.5)) ;
#180=CARTESIAN_POINT('Line Origine',(45.,-20.75,-29.)) ;
#184=CARTESIAN_POINT('Vertex',(45.,-20.75,-32.5)) ;
#187=CARTESIAN_POINT('Line Origine',(45.,-7.1054273576E-015,-32.5)) ;
#191=CARTESIAN_POINT('Vertex',(45.,20.75,-32.5)) ;
#194=CARTESIAN_POINT('Line Origine',(45.,20.75,-29.)) ;
#198=CARTESIAN_POINT('Vertex',(45.,20.75,-25.5)) ;
#201=CARTESIAN_POINT('Line Origine',(45.,23.875,-25.5)) ;
#205=CARTESIAN_POINT('Vertex',(45.,27.,-25.5)) ;
#208=CARTESIAN_POINT('Line Origine',(45.,27.,3.50000000002)) ;
#212=CARTESIAN_POINT('Vertex',(45.,27.,32.5)) ;
#215=CARTESIAN_POINT('Line Origine',(45.,24.,32.5)) ;
#219=CARTESIAN_POINT('Vertex',(45.,21.,32.5)) ;
#222=CARTESIAN_POINT('Line Origine',(45.,21.,29.)) ;
#227=CARTESIAN_POINT('Line Origine',(45.,-21.,29.)) ;
#247=CARTESIAN_POINT('Axis2P3D Location',(0.,-21.,32.5)) ;
#252=CARTESIAN_POINT('Line Origine',(-45.,-21.,29.)) ;
#256=CARTESIAN_POINT('Vertex',(-45.,-21.,32.5)) ;
#259=CARTESIAN_POINT('Line Origine',(0.,-21.,32.5)) ;
#271=CARTESIAN_POINT('Axis2P3D Location',(0.,-27.,32.5)) ;
#276=CARTESIAN_POINT('Line Origine',(-45.,-24.,32.5)) ;
#280=CARTESIAN_POINT('Vertex',(-45.,-27.,32.5)) ;
#283=CARTESIAN_POINT('Line Origine',(0.,-27.,32.5)) ;
#295=CARTESIAN_POINT('Axis2P3D Location',(0.,-27.,-32.5)) ;
#300=CARTESIAN_POINT('Line Origine',(0.,-27.,-25.5)) ;
#304=CARTESIAN_POINT('Vertex',(-45.,-27.,-25.5)) ;
#307=CARTESIAN_POINT('Line Origine',(-45.,-27.,3.50000000002)) ;
#319=CARTESIAN_POINT('Axis2P3D Location',(0.,27.,32.5)) ;
#324=CARTESIAN_POINT('Line Origine',(0.,27.,-25.5)) ;
#328=CARTESIAN_POINT('Vertex',(-45.,27.,-25.5)) ;
#331=CARTESIAN_POINT('Line Origine',(-45.,27.,3.50000000002)) ;
#335=CARTESIAN_POINT('Vertex',(-45.,27.,32.5)) ;
#338=CARTESIAN_POINT('Line Origine',(0.,27.,32.5)) ;
#350=CARTESIAN_POINT('Line Origine',(0.,21.,32.5)) ;
#354=CARTESIAN_POINT('Vertex',(-45.,21.,32.5)) ;
#357=CARTESIAN_POINT('Line Origine',(-45.,24.,32.5)) ;
#369=CARTESIAN_POINT('Axis2P3D Location',(0.,20.75,-25.5)) ;
#374=CARTESIAN_POINT('Line Origine',(0.,20.75,-25.5)) ;
#378=CARTESIAN_POINT('Vertex',(-45.,20.75,-25.5)) ;
#381=CARTESIAN_POINT('Line Origine',(-45.,23.875,-25.5)) ;
#393=CARTESIAN_POINT('Axis2P3D Location',(0.,20.75,-25.5)) ;
#398=CARTESIAN_POINT('Line Origine',(0.,20.75,-32.5)) ;
#402=CARTESIAN_POINT('Vertex',(-45.,20.75,-32.5)) ;
#405=CARTESIAN_POINT('Line Origine',(-45.,20.75,-29.)) ;
#417=CARTESIAN_POINT('Axis2P3D Location',(0.,-20.75,-25.5)) ;
#422=CARTESIAN_POINT('Line Origine',(0.,-20.75,-25.5)) ;
#426=CARTESIAN_POINT('Vertex',(-45.,-20.75,-25.5)) ;
#429=CARTESIAN_POINT('Line Origine',(-45.,-20.75,-29.)) ;
#433=CARTESIAN_POINT('Vertex',(-45.,-20.75,-32.5)) ;
#436=CARTESIAN_POINT('Line Origine',(0.,-20.75,-32.5)) ;
#448=CARTESIAN_POINT('Line Origine',(-45.,-23.875,-25.5)) ;
#460=CARTESIAN_POINT('Axis2P3D Location',(-45.,0.,0.)) ;
#465=CARTESIAN_POINT('Line Origine',(-45.,21.,29.)) ;
#470=CARTESIAN_POINT('Line Origine',(-45.,-7.1054273576E-015,-32.5)) ;
#490=CARTESIAN_POINT('Axis2P3D Location',(0.,21.,25.5)) ;
#502=CARTESIAN_POINT('Axis2P3D Location',(0.,27.,-32.5)) ;
#521=CARTESIAN_POINT('Axis2P3D Location',(0.,0.,0.)) ;
#52=DIRECTION('Axis2P3D Direction',(0.,-0.,-1.)) ;
#53=DIRECTION('Axis2P3D XDirection',(1.,0.,0.)) ;
#57=DIRECTION('Vector Direction',(0.,0.,-1.)) ;
#66=DIRECTION('Axis2P3D Direction',(0.,-0.,-1.)) ;
#73=DIRECTION('Vector Direction',(0.,0.,-1.)) ;
#80=DIRECTION('Axis2P3D Direction',(0.,-0.,-1.)) ;
#92=DIRECTION('Axis2P3D Direction',(-0.,0.,1.)) ;
#93=DIRECTION('Axis2P3D XDirection',(0.,-1.,0.)) ;
#97=DIRECTION('Vector Direction',(0.,-1.,0.)) ;
#106=DIRECTION('Vector Direction',(1.,0.,0.)) ;
#113=DIRECTION('Vector Direction',(0.,-1.,0.)) ;
#120=DIRECTION('Vector Direction',(1.,0.,0.)) ;
#131=DIRECTION('Axis2P3D Direction',(-0.,0.,1.)) ;
#141=DIRECTION('Axis2P3D Direction',(0.,-0.,-1.)) ;
#153=DIRECTION('Axis2P3D Direction',(1.,0.,0.)) ;
#154=DIRECTION('Axis2P3D XDirection',(0.,1.,0.)) ;
#158=DIRECTION('Vector Direction',(0.,1.,0.)) ;
#167=DIRECTION('Vector Direction',(0.,0.,1.)) ;
#174=DIRECTION('Vector Direction',(0.,-1.,0.)) ;
#181=DIRECTION('Vector Direction',(0.,0.,-1.)) ;
#188=DIRECTION('Vector Direction',(0.,-1.,0.)) ;
#195=DIRECTION('Vector Direction',(0.,0.,-1.)) ;
#202=DIRECTION('Vector Direction',(0.,1.,0.)) ;
#209=DIRECTION('Vector Direction',(0.,0.,-1.)) ;
#216=DIRECTION('Vector Direction',(0.,1.,0.)) ;
#223=DIRECTION('Vector Direction',(0.,0.,1.)) ;
#228=DIRECTION('Vector Direction',(0.,0.,-1.)) ;
#248=DIRECTION('Axis2P3D Direction',(0.,-1.,0.)) ;
#249=DIRECTION('Axis2P3D XDirection',(0.,0.,-1.)) ;
#253=DIRECTION('Vector Direction',(0.,0.,-1.)) ;
#260=DIRECTION('Vector Direction',(1.,0.,0.)) ;
#272=DIRECTION('Axis2P3D Direction',(0.,0.,-1.)) ;
#273=DIRECTION('Axis2P3D XDirection',(0.,1.,0.)) ;
#277=DIRECTION('Vector Direction',(0.,1.,0.)) ;
#284=DIRECTION('Vector Direction',(1.,0.,0.)) ;
#296=DIRECTION('Axis2P3D Direction',(0.,1.,0.)) ;
#297=DIRECTION('Axis2P3D XDirection',(0.,0.,1.)) ;
#301=DIRECTION('Vector Direction',(1.,0.,0.)) ;
#308=DIRECTION('Vector Direction',(0.,0.,1.)) ;
#320=DIRECTION('Axis2P3D Direction',(0.,-1.,0.)) ;
#321=DIRECTION('Axis2P3D XDirection',(0.,0.,-1.)) ;
#325=DIRECTION('Vector Direction',(1.,0.,0.)) ;
#332=DIRECTION('Vector Direction',(0.,0.,-1.)) ;
#339=DIRECTION('Vector Direction',(1.,0.,0.)) ;
#351=DIRECTION('Vector Direction',(1.,0.,0.)) ;
#358=DIRECTION('Vector Direction',(0.,1.,0.)) ;
#370=DIRECTION('Axis2P3D Direction',(0.,0.,-1.)) ;
#371=DIRECTION('Axis2P3D XDirection',(0.,1.,0.)) ;
#375=DIRECTION('Vector Direction',(1.,0.,0.)) ;
#382=DIRECTION('Vector Direction',(0.,1.,0.)) ;
#394=DIRECTION('Axis2P3D Direction',(0.,-1.,0.)) ;
#395=DIRECTION('Axis2P3D XDirection',(0.,0.,-1.)) ;
#399=DIRECTION('Vector Direction',(1.,0.,0.)) ;
#406=DIRECTION('Vector Direction',(0.,0.,-1.)) ;
#418=DIRECTION('Axis2P3D Direction',(0.,-1.,0.)) ;
#419=DIRECTION('Axis2P3D XDirection',(0.,0.,-1.)) ;
#423=DIRECTION('Vector Direction',(1.,0.,0.)) ;
#430=DIRECTION('Vector Direction',(0.,0.,-1.)) ;
#437=DIRECTION('Vector Direction',(1.,0.,0.)) ;
#449=DIRECTION('Vector Direction',(0.,-1.,0.)) ;
#461=DIRECTION('Axis2P3D Direction',(1.,0.,0.)) ;
#462=DIRECTION('Axis2P3D XDirection',(0.,1.,0.)) ;
#466=DIRECTION('Vector Direction',(0.,0.,1.)) ;
#471=DIRECTION('Vector Direction',(0.,-1.,0.)) ;
#491=DIRECTION('Axis2P3D Direction',(0.,1.,0.)) ;
#492=DIRECTION('Axis2P3D XDirection',(0.,0.,1.)) ;
#503=DIRECTION('Axis2P3D Direction',(-0.,0.,1.)) ;
#504=DIRECTION('Axis2P3D XDirection',(0.,-1.,0.)) ;
#522=DIRECTION('Axis2P3D Direction',(0.,0.,1.)) ;
#523=DIRECTION('Axis2P3D XDirection',(1.,0.,0.)) ;
#47=AXIS2_PLACEMENT_3D(' ',#46,$,$) ;
#54=AXIS2_PLACEMENT_3D('Cylinder Axis2P3D',#51,#52,#53) ;
#67=AXIS2_PLACEMENT_3D('Circle Axis2P3D',#65,#66,$) ;
#81=AXIS2_PLACEMENT_3D('Circle Axis2P3D',#79,#80,$) ;
#94=AXIS2_PLACEMENT_3D('Plane Axis2P3D',#91,#92,#93) ;
#132=AXIS2_PLACEMENT_3D('Circle Axis2P3D',#130,#131,$) ;
#142=AXIS2_PLACEMENT_3D('Circle Axis2P3D',#140,#141,$) ;
#155=AXIS2_PLACEMENT_3D('Plane Axis2P3D',#152,#153,#154) ;
#250=AXIS2_PLACEMENT_3D('Plane Axis2P3D',#247,#248,#249) ;
#274=AXIS2_PLACEMENT_3D('Plane Axis2P3D',#271,#272,#273) ;
#298=AXIS2_PLACEMENT_3D('Plane Axis2P3D',#295,#296,#297) ;
#322=AXIS2_PLACEMENT_3D('Plane Axis2P3D',#319,#320,#321) ;
#372=AXIS2_PLACEMENT_3D('Plane Axis2P3D',#369,#370,#371) ;
#396=AXIS2_PLACEMENT_3D('Plane Axis2P3D',#393,#394,#395) ;
#420=AXIS2_PLACEMENT_3D('Plane Axis2P3D',#417,#418,#419) ;
#463=AXIS2_PLACEMENT_3D('Plane Axis2P3D',#460,#461,#462) ;
#493=AXIS2_PLACEMENT_3D('Plane Axis2P3D',#490,#491,#492) ;
#505=AXIS2_PLACEMENT_3D('Plane Axis2P3D',#502,#503,#504) ;
#524=AXIS2_PLACEMENT_3D('Rep\X2\00E8\X0\re absolu',#521,#522,#523) ;
#40=PRODUCT_DEFINITION_SHAPE(' ',' ',#14) ;
#31=APPROVAL_PERSON_ORGANIZATION(#25,#21,#19) ;
#25=PERSON_AND_ORGANIZATION(#22,#23) ;
#22=PERSON(' ',' ',' ',$,$,$) ;
#23=ORGANIZATION(' ',' ',' ') ;
#21=APPROVAL(#20,' ') ;
#20=APPROVAL_STATUS('not_yet_approved') ;
#19=APPROVAL_ROLE('APPROVER') ;
#13=DATE_AND_TIME(#11,#12) ;
#12=LOCAL_TIME(15,40,52.,#10) ;
#10=COORDINATED_UNIVERSAL_TIME_OFFSET(0,0,.AHEAD.) ;
#85=ORIENTED_EDGE('',*,*,#64,.F.) ;
#86=ORIENTED_EDGE('',*,*,#71,.F.) ;
#87=ORIENTED_EDGE('',*,*,#78,.T.) ;
#88=ORIENTED_EDGE('',*,*,#83,.T.) ;
#125=ORIENTED_EDGE('',*,*,#104,.T.) ;
#126=ORIENTED_EDGE('',*,*,#111,.F.) ;
#127=ORIENTED_EDGE('',*,*,#118,.F.) ;
#128=ORIENTED_EDGE('',*,*,#123,.T.) ;
#136=ORIENTED_EDGE('',*,*,#134,.F.) ;
#137=ORIENTED_EDGE('',*,*,#83,.F.) ;
#146=ORIENTED_EDGE('',*,*,#78,.F.) ;
#147=ORIENTED_EDGE('',*,*,#144,.F.) ;
#148=ORIENTED_EDGE('',*,*,#64,.T.) ;
#149=ORIENTED_EDGE('',*,*,#134,.T.) ;
#233=ORIENTED_EDGE('',*,*,#165,.T.) ;
#234=ORIENTED_EDGE('',*,*,#172,.T.) ;
#235=ORIENTED_EDGE('',*,*,#179,.F.) ;
#236=ORIENTED_EDGE('',*,*,#186,.F.) ;
#237=ORIENTED_EDGE('',*,*,#193,.T.) ;
#238=ORIENTED_EDGE('',*,*,#200,.F.) ;
#239=ORIENTED_EDGE('',*,*,#207,.F.) ;
#240=ORIENTED_EDGE('',*,*,#214,.T.) ;
#241=ORIENTED_EDGE('',*,*,#221,.T.) ;
#242=ORIENTED_EDGE('',*,*,#226,.F.) ;
#243=ORIENTED_EDGE('',*,*,#104,.F.) ;
#244=ORIENTED_EDGE('',*,*,#231,.F.) ;
#265=ORIENTED_EDGE('',*,*,#231,.T.) ;
#266=ORIENTED_EDGE('',*,*,#123,.F.) ;
#267=ORIENTED_EDGE('',*,*,#258,.F.) ;
#268=ORIENTED_EDGE('',*,*,#263,.T.) ;
#289=ORIENTED_EDGE('',*,*,#263,.F.) ;
#290=ORIENTED_EDGE('',*,*,#282,.T.) ;
#291=ORIENTED_EDGE('',*,*,#287,.T.) ;
#292=ORIENTED_EDGE('',*,*,#165,.F.) ;
#313=ORIENTED_EDGE('',*,*,#306,.T.) ;
#314=ORIENTED_EDGE('',*,*,#172,.F.) ;
#315=ORIENTED_EDGE('',*,*,#287,.F.) ;
#316=ORIENTED_EDGE('',*,*,#311,.T.) ;
#344=ORIENTED_EDGE('',*,*,#330,.F.) ;
#345=ORIENTED_EDGE('',*,*,#337,.T.) ;
#346=ORIENTED_EDGE('',*,*,#342,.T.) ;
#347=ORIENTED_EDGE('',*,*,#214,.F.) ;
#363=ORIENTED_EDGE('',*,*,#356,.T.) ;
#364=ORIENTED_EDGE('',*,*,#221,.F.) ;
#365=ORIENTED_EDGE('',*,*,#342,.F.) ;
#366=ORIENTED_EDGE('',*,*,#361,.T.) ;
#387=ORIENTED_EDGE('',*,*,#207,.T.) ;
#388=ORIENTED_EDGE('',*,*,#380,.F.) ;
#389=ORIENTED_EDGE('',*,*,#385,.F.) ;
#390=ORIENTED_EDGE('',*,*,#330,.T.) ;
#411=ORIENTED_EDGE('',*,*,#200,.T.) ;
#412=ORIENTED_EDGE('',*,*,#404,.F.) ;
#413=ORIENTED_EDGE('',*,*,#409,.F.) ;
#414=ORIENTED_EDGE('',*,*,#380,.T.) ;
#442=ORIENTED_EDGE('',*,*,#186,.T.) ;
#443=ORIENTED_EDGE('',*,*,#428,.F.) ;
#444=ORIENTED_EDGE('',*,*,#435,.F.) ;
#445=ORIENTED_EDGE('',*,*,#440,.T.) ;
#454=ORIENTED_EDGE('',*,*,#179,.T.) ;
#455=ORIENTED_EDGE('',*,*,#306,.F.) ;
#456=ORIENTED_EDGE('',*,*,#452,.F.) ;
#457=ORIENTED_EDGE('',*,*,#428,.T.) ;
#476=ORIENTED_EDGE('',*,*,#258,.T.) ;
#477=ORIENTED_EDGE('',*,*,#118,.T.) ;
#478=ORIENTED_EDGE('',*,*,#469,.T.) ;
#479=ORIENTED_EDGE('',*,*,#361,.F.) ;
#480=ORIENTED_EDGE('',*,*,#337,.F.) ;
#481=ORIENTED_EDGE('',*,*,#385,.T.) ;
#482=ORIENTED_EDGE('',*,*,#409,.T.) ;
#483=ORIENTED_EDGE('',*,*,#474,.F.) ;
#484=ORIENTED_EDGE('',*,*,#435,.T.) ;
#485=ORIENTED_EDGE('',*,*,#452,.T.) ;
#486=ORIENTED_EDGE('',*,*,#311,.F.) ;
#487=ORIENTED_EDGE('',*,*,#282,.F.) ;
#496=ORIENTED_EDGE('',*,*,#226,.T.) ;
#497=ORIENTED_EDGE('',*,*,#356,.F.) ;
#498=ORIENTED_EDGE('',*,*,#469,.F.) ;
#499=ORIENTED_EDGE('',*,*,#111,.T.) ;
#508=ORIENTED_EDGE('',*,*,#193,.F.) ;
#509=ORIENTED_EDGE('',*,*,#440,.F.) ;
#510=ORIENTED_EDGE('',*,*,#474,.T.) ;
#511=ORIENTED_EDGE('',*,*,#404,.T.) ;
#514=ORIENTED_EDGE('',*,*,#71,.T.) ;
#515=ORIENTED_EDGE('',*,*,#144,.T.) ;
#138=FACE_BOUND('',#135,.T.) ;
#516=FACE_BOUND('',#513,.T.) ;
#50=CLOSED_SHELL('Closed Shell',(#90,#139,#151,#246,#270,#294,#318,#349,#368,#392,#416,#447,#459,#489,#501,#517)) ;
#58=VECTOR('Line Direction',#57,1.) ;
#74=VECTOR('Line Direction',#73,1.) ;
#98=VECTOR('Line Direction',#97,1.) ;
#107=VECTOR('Line Direction',#106,1.) ;
#114=VECTOR('Line Direction',#113,1.) ;
#121=VECTOR('Line Direction',#120,1.) ;
#159=VECTOR('Line Direction',#158,1.) ;
#168=VECTOR('Line Direction',#167,1.) ;
#175=VECTOR('Line Direction',#174,1.) ;
#182=VECTOR('Line Direction',#181,1.) ;
#189=VECTOR('Line Direction',#188,1.) ;
#196=VECTOR('Line Direction',#195,1.) ;
#203=VECTOR('Line Direction',#202,1.) ;
#210=VECTOR('Line Direction',#209,1.) ;
#217=VECTOR('Line Direction',#216,1.) ;
#224=VECTOR('Line Direction',#223,1.) ;
#229=VECTOR('Line Direction',#228,1.) ;
#254=VECTOR('Line Direction',#253,1.) ;
#261=VECTOR('Line Direction',#260,1.) ;
#278=VECTOR('Line Direction',#277,1.) ;
#285=VECTOR('Line Direction',#284,1.) ;
#302=VECTOR('Line Direction',#301,1.) ;
#309=VECTOR('Line Direction',#308,1.) ;
#326=VECTOR('Line Direction',#325,1.) ;
#333=VECTOR('Line Direction',#332,1.) ;
#340=VECTOR('Line Direction',#339,1.) ;
#352=VECTOR('Line Direction',#351,1.) ;
#359=VECTOR('Line Direction',#358,1.) ;
#376=VECTOR('Line Direction',#375,1.) ;
#383=VECTOR('Line Direction',#382,1.) ;
#400=VECTOR('Line Direction',#399,1.) ;
#407=VECTOR('Line Direction',#406,1.) ;
#424=VECTOR('Line Direction',#423,1.) ;
#431=VECTOR('Line Direction',#430,1.) ;
#438=VECTOR('Line Direction',#437,1.) ;
#450=VECTOR('Line Direction',#449,1.) ;
#467=VECTOR('Line Direction',#466,1.) ;
#472=VECTOR('Line Direction',#471,1.) ;
#519=ADVANCED_BREP_SHAPE_REPRESENTATION('NONE',(#518),#45) ;
#48=SHAPE_REPRESENTATION(' ',(#47),#45) ;
#90=ADVANCED_FACE('Corps principal',(#89),#55,.F.) ;
#139=ADVANCED_FACE('Corps principal',(#129,#138),#95,.T.) ;
#151=ADVANCED_FACE('Corps principal',(#150),#55,.F.) ;
#246=ADVANCED_FACE('Corps principal',(#245),#156,.T.) ;
#270=ADVANCED_FACE('Corps principal',(#269),#251,.F.) ;
#294=ADVANCED_FACE('Corps principal',(#293),#275,.F.) ;
#318=ADVANCED_FACE('Corps principal',(#317),#299,.F.) ;
#349=ADVANCED_FACE('Corps principal',(#348),#323,.F.) ;
#368=ADVANCED_FACE('Corps principal',(#367),#275,.F.) ;
#392=ADVANCED_FACE('Corps principal',(#391),#373,.T.) ;
#416=ADVANCED_FACE('Corps principal',(#415),#397,.F.) ;
#447=ADVANCED_FACE('Corps principal',(#446),#421,.T.) ;
#459=ADVANCED_FACE('Corps principal',(#458),#373,.T.) ;
#489=ADVANCED_FACE('Corps principal',(#488),#464,.F.) ;
#501=ADVANCED_FACE('Corps principal',(#500),#494,.F.) ;
#517=ADVANCED_FACE('Corps principal',(#512,#516),#506,.F.) ;
#4=APPLICATION_PROTOCOL_DEFINITION('international standard','config_control_design',1994,#1) ;
#32=APPROVAL_DATE_TIME(#13,#21) ;
#518=MANIFOLD_SOLID_BREP('Corps principal',#50) ;
#11=CALENDAR_DATE(2021,8,4) ;
#30=CC_DESIGN_APPROVAL(#21,(#16,#6,#14)) ;
#18=CC_DESIGN_DATE_AND_TIME_ASSIGNMENT(#13,#17,(#16)) ;
#29=CC_DESIGN_DATE_AND_TIME_ASSIGNMENT(#13,#28,(#14)) ;
#17=DATE_TIME_ROLE('classification_date') ;
#28=DATE_TIME_ROLE('creation_date') ;
#27=CC_DESIGN_PERSON_AND_ORGANIZATION_ASSIGNMENT(#25,#26,(#16)) ;
#33=CC_DESIGN_PERSON_AND_ORGANIZATION_ASSIGNMENT(#25,#34,(#6)) ;
#35=CC_DESIGN_PERSON_AND_ORGANIZATION_ASSIGNMENT(#25,#36,(#6,#14)) ;
#37=CC_DESIGN_PERSON_AND_ORGANIZATION_ASSIGNMENT(#25,#38,(#5)) ;
#26=PERSON_AND_ORGANIZATION_ROLE('classification_officer') ;
#34=PERSON_AND_ORGANIZATION_ROLE('design_supplier') ;
#36=PERSON_AND_ORGANIZATION_ROLE('creator') ;
#38=PERSON_AND_ORGANIZATION_ROLE('design_owner') ;
#39=CC_DESIGN_SECURITY_CLASSIFICATION(#16,(#6)) ;
#68=CIRCLE('generated circle',#67,5.25) ;
#82=CIRCLE('generated circle',#81,5.25) ;
#133=CIRCLE('generated circle',#132,5.25) ;
#143=CIRCLE('generated circle',#142,5.25) ;
#520=SHAPE_REPRESENTATION_RELATIONSHIP(' ',' ',#48,#519) ;
#55=CYLINDRICAL_SURFACE('generated cylinder',#54,5.25) ;
#3=DESIGN_CONTEXT(' ',#1,'design') ;
#64=EDGE_CURVE('',#61,#63,#59,.F.) ;
#71=EDGE_CURVE('',#70,#61,#68,.F.) ;
#78=EDGE_CURVE('',#70,#77,#75,.F.) ;
#83=EDGE_CURVE('',#77,#63,#82,.F.) ;
#104=EDGE_CURVE('',#101,#103,#99,.F.) ;
#111=EDGE_CURVE('',#110,#103,#108,.T.) ;
#118=EDGE_CURVE('',#117,#110,#115,.F.) ;
#123=EDGE_CURVE('',#117,#101,#122,.T.) ;
#134=EDGE_CURVE('',#63,#77,#133,.T.) ;
#144=EDGE_CURVE('',#61,#70,#143,.F.) ;
#165=EDGE_CURVE('',#162,#164,#160,.F.) ;
#172=EDGE_CURVE('',#164,#171,#169,.F.) ;
#179=EDGE_CURVE('',#178,#171,#176,.T.) ;
#186=EDGE_CURVE('',#185,#178,#183,.F.) ;
#193=EDGE_CURVE('',#185,#192,#190,.F.) ;
#200=EDGE_CURVE('',#199,#192,#197,.T.) ;
#207=EDGE_CURVE('',#206,#199,#204,.F.) ;
#214=EDGE_CURVE('',#206,#213,#211,.F.) ;
#221=EDGE_CURVE('',#213,#220,#218,.F.) ;
#226=EDGE_CURVE('',#103,#220,#225,.T.) ;
#231=EDGE_CURVE('',#162,#101,#230,.T.) ;
#258=EDGE_CURVE('',#257,#117,#255,.T.) ;
#263=EDGE_CURVE('',#257,#162,#262,.T.) ;
#282=EDGE_CURVE('',#257,#281,#279,.F.) ;
#287=EDGE_CURVE('',#281,#164,#286,.T.) ;
#306=EDGE_CURVE('',#305,#171,#303,.T.) ;
#311=EDGE_CURVE('',#281,#305,#310,.F.) ;
#330=EDGE_CURVE('',#329,#206,#327,.T.) ;
#337=EDGE_CURVE('',#329,#336,#334,.F.) ;
#342=EDGE_CURVE('',#336,#213,#341,.T.) ;
#356=EDGE_CURVE('',#355,#220,#353,.T.) ;
#361=EDGE_CURVE('',#336,#355,#360,.F.) ;
#380=EDGE_CURVE('',#379,#199,#377,.T.) ;
#385=EDGE_CURVE('',#329,#379,#384,.F.) ;
#404=EDGE_CURVE('',#403,#192,#401,.T.) ;
#409=EDGE_CURVE('',#379,#403,#408,.T.) ;
#428=EDGE_CURVE('',#427,#178,#425,.T.) ;
#435=EDGE_CURVE('',#434,#427,#432,.F.) ;
#440=EDGE_CURVE('',#434,#185,#439,.T.) ;
#452=EDGE_CURVE('',#427,#305,#451,.T.) ;
#469=EDGE_CURVE('',#110,#355,#468,.T.) ;
#474=EDGE_CURVE('',#434,#403,#473,.F.) ;
#84=EDGE_LOOP('',(#85,#86,#87,#88)) ;
#124=EDGE_LOOP('',(#125,#126,#127,#128)) ;
#135=EDGE_LOOP('',(#136,#137)) ;
#145=EDGE_LOOP('',(#146,#147,#148,#149)) ;
#232=EDGE_LOOP('',(#233,#234,#235,#236,#237,#238,#239,#240,#241,#242,#243,#244)) ;
#264=EDGE_LOOP('',(#265,#266,#267,#268)) ;
#288=EDGE_LOOP('',(#289,#290,#291,#292)) ;
#312=EDGE_LOOP('',(#313,#314,#315,#316)) ;
#343=EDGE_LOOP('',(#344,#345,#346,#347)) ;
#362=EDGE_LOOP('',(#363,#364,#365,#366)) ;
#386=EDGE_LOOP('',(#387,#388,#389,#390)) ;
#410=EDGE_LOOP('',(#411,#412,#413,#414)) ;
#441=EDGE_LOOP('',(#442,#443,#444,#445)) ;
#453=EDGE_LOOP('',(#454,#455,#456,#457)) ;
#475=EDGE_LOOP('',(#476,#477,#478,#479,#480,#481,#482,#483,#484,#485,#486,#487)) ;
#495=EDGE_LOOP('',(#496,#497,#498,#499)) ;
#507=EDGE_LOOP('',(#508,#509,#510,#511)) ;
#513=EDGE_LOOP('',(#514,#515)) ;
#89=FACE_OUTER_BOUND('',#84,.T.) ;
#129=FACE_OUTER_BOUND('',#124,.T.) ;
#150=FACE_OUTER_BOUND('',#145,.T.) ;
#245=FACE_OUTER_BOUND('',#232,.T.) ;
#269=FACE_OUTER_BOUND('',#264,.T.) ;
#293=FACE_OUTER_BOUND('',#288,.T.) ;
#317=FACE_OUTER_BOUND('',#312,.T.) ;
#348=FACE_OUTER_BOUND('',#343,.T.) ;
#367=FACE_OUTER_BOUND('',#362,.T.) ;
#391=FACE_OUTER_BOUND('',#386,.T.) ;
#415=FACE_OUTER_BOUND('',#410,.T.) ;
#446=FACE_OUTER_BOUND('',#441,.T.) ;
#458=FACE_OUTER_BOUND('',#453,.T.) ;
#488=FACE_OUTER_BOUND('',#475,.T.) ;
#500=FACE_OUTER_BOUND('',#495,.T.) ;
#512=FACE_OUTER_BOUND('',#507,.T.) ;
#44=UNCERTAINTY_MEASURE_WITH_UNIT(LENGTH_MEASURE(0.005),#41,'distance_accuracy_value','CONFUSED CURVE UNCERTAINTY') ;
#59=LINE('Line',#56,#58) ;
#75=LINE('Line',#72,#74) ;
#99=LINE('Line',#96,#98) ;
#108=LINE('Line',#105,#107) ;
#115=LINE('Line',#112,#114) ;
#122=LINE('Line',#119,#121) ;
#160=LINE('Line',#157,#159) ;
#169=LINE('Line',#166,#168) ;
#176=LINE('Line',#173,#175) ;
#183=LINE('Line',#180,#182) ;
#190=LINE('Line',#187,#189) ;
#197=LINE('Line',#194,#196) ;
#204=LINE('Line',#201,#203) ;
#211=LINE('Line',#208,#210) ;
#218=LINE('Line',#215,#217) ;
#225=LINE('Line',#222,#224) ;
#230=LINE('Line',#227,#229) ;
#255=LINE('Line',#252,#254) ;
#262=LINE('Line',#259,#261) ;
#279=LINE('Line',#276,#278) ;
#286=LINE('Line',#283,#285) ;
#303=LINE('Line',#300,#302) ;
#310=LINE('Line',#307,#309) ;
#327=LINE('Line',#324,#326) ;
#334=LINE('Line',#331,#333) ;
#341=LINE('Line',#338,#340) ;
#353=LINE('Line',#350,#352) ;
#360=LINE('Line',#357,#359) ;
#377=LINE('Line',#374,#376) ;
#384=LINE('Line',#381,#383) ;
#401=LINE('Line',#398,#400) ;
#408=LINE('Line',#405,#407) ;
#425=LINE('Line',#422,#424) ;
#432=LINE('Line',#429,#431) ;
#439=LINE('Line',#436,#438) ;
#451=LINE('Line',#448,#450) ;
#468=LINE('Line',#465,#467) ;
#473=LINE('Line',#470,#472) ;
#2=MECHANICAL_CONTEXT(' ',#1,'mechanical') ;
#24=PERSONAL_ADDRESS(' ',' ',' ',' ',' ',' ',' ',' ',' ',' ',' ',' ',(#22),' ') ;
#95=PLANE('',#94) ;
#156=PLANE('',#155) ;
#251=PLANE('',#250) ;
#275=PLANE('',#274) ;
#299=PLANE('',#298) ;
#323=PLANE('',#322) ;
#373=PLANE('',#372) ;
#397=PLANE('',#396) ;
#421=PLANE('',#420) ;
#464=PLANE('',#463) ;
#494=PLANE('',#493) ;
#506=PLANE('',#505) ;
#7=PRODUCT_CATEGORY('part',$) ;
#9=PRODUCT_CATEGORY_RELATIONSHIP(' ',' ',#7,#8) ;
#6=PRODUCT_DEFINITION_FORMATION_WITH_SPECIFIED_SOURCE('',' ',#5,.NOT_KNOWN.) ;
#8=PRODUCT_RELATED_PRODUCT_CATEGORY('detail',$,(#5)) ;
#49=SHAPE_DEFINITION_REPRESENTATION(#40,#48) ;
#61=VERTEX_POINT('',#60) ;
#63=VERTEX_POINT('',#62) ;
#70=VERTEX_POINT('',#69) ;
#77=VERTEX_POINT('',#76) ;
#101=VERTEX_POINT('',#100) ;
#103=VERTEX_POINT('',#102) ;
#110=VERTEX_POINT('',#109) ;
#117=VERTEX_POINT('',#116) ;
#162=VERTEX_POINT('',#161) ;
#164=VERTEX_POINT('',#163) ;
#171=VERTEX_POINT('',#170) ;
#178=VERTEX_POINT('',#177) ;
#185=VERTEX_POINT('',#184) ;
#192=VERTEX_POINT('',#191) ;
#199=VERTEX_POINT('',#198) ;
#206=VERTEX_POINT('',#205) ;
#213=VERTEX_POINT('',#212) ;
#220=VERTEX_POINT('',#219) ;
#257=VERTEX_POINT('',#256) ;
#281=VERTEX_POINT('',#280) ;
#305=VERTEX_POINT('',#304) ;
#329=VERTEX_POINT('',#328) ;
#336=VERTEX_POINT('',#335) ;
#355=VERTEX_POINT('',#354) ;
#379=VERTEX_POINT('',#378) ;
#403=VERTEX_POINT('',#402) ;
#427=VERTEX_POINT('',#426) ;
#434=VERTEX_POINT('',#433) ;
#41=(LENGTH_UNIT()NAMED_UNIT(*)SI_UNIT(.MILLI.,.METRE.)) ;
#42=(NAMED_UNIT(*)PLANE_ANGLE_UNIT()SI_UNIT($,.RADIAN.)) ;
#43=(NAMED_UNIT(*)SI_UNIT($,.STERADIAN.)SOLID_ANGLE_UNIT()) ;
#45=(GEOMETRIC_REPRESENTATION_CONTEXT(3)GLOBAL_UNCERTAINTY_ASSIGNED_CONTEXT((#44))GLOBAL_UNIT_ASSIGNED_CONTEXT((#41,#42,#43))REPRESENTATION_CONTEXT(' ',' ')) ;
ENDSEC;
END-ISO-10303-21;
