ISO-10303-21;
HEADER;
/* Generated by software containing ST-Developer
 * from STEP Tools, Inc. (www.steptools.com) 
 */

FILE_DESCRIPTION(
/* description */ (''),
/* implementation_level */ '2;1');

FILE_NAME(
/* name */ 'E:\\stephane_larhant\\step\\chassis_2.stp',
/* time_stamp */ '2021-03-29T18:34:12+02:00',
/* author */ ('Utilisateur'),
/* organization */ (''),
/* preprocessor_version */ 'ST-DEVELOPER v16.5',
/* originating_system */ 'Autodesk Inventor 2017',
/* authorisation */ '');

FILE_SCHEMA (('AUTOMOTIVE_DESIGN { 1 0 10303 214 3 1 1 }'));
ENDSEC;

DATA;
#10=MECHANICAL_DESIGN_GEOMETRIC_PRESENTATION_REPRESENTATION('',(#13),#701);
#11=SHAPE_REPRESENTATION_RELATIONSHIP('SRR','None',#710,#12);
#12=ADVANCED_BREP_SHAPE_REPRESENTATION('',(#14),#700);
#13=STYLED_ITEM('',(#719),#14);
#14=MANIFOLD_SOLID_BREP('Solide1',#403);
#15=LINE('',#675,#27);
#16=LINE('',#677,#28);
#17=LINE('',#679,#29);
#18=LINE('',#680,#30);
#19=LINE('',#683,#31);
#20=LINE('',#685,#32);
#21=LINE('',#686,#33);
#22=LINE('',#689,#34);
#23=LINE('',#691,#35);
#24=LINE('',#692,#36);
#25=LINE('',#694,#37);
#26=LINE('',#695,#38);
#27=VECTOR('',#571,10.);
#28=VECTOR('',#572,10.);
#29=VECTOR('',#573,10.);
#30=VECTOR('',#574,10.);
#31=VECTOR('',#577,10.);
#32=VECTOR('',#578,10.);
#33=VECTOR('',#579,10.);
#34=VECTOR('',#582,10.);
#35=VECTOR('',#583,10.);
#36=VECTOR('',#584,10.);
#37=VECTOR('',#587,10.);
#38=VECTOR('',#588,10.);
#39=PLANE('',#419);
#40=PLANE('',#426);
#41=PLANE('',#433);
#42=PLANE('',#440);
#43=PLANE('',#447);
#44=PLANE('',#454);
#45=PLANE('',#461);
#46=PLANE('',#462);
#47=PLANE('',#463);
#48=PLANE('',#464);
#49=PLANE('',#465);
#50=PLANE('',#466);
#51=FACE_BOUND('',#129,.T.);
#52=FACE_BOUND('',#132,.T.);
#53=FACE_BOUND('',#134,.T.);
#54=FACE_BOUND('',#136,.T.);
#55=FACE_BOUND('',#138,.T.);
#56=FACE_BOUND('',#140,.T.);
#57=FACE_BOUND('',#142,.T.);
#58=FACE_BOUND('',#144,.T.);
#59=FACE_BOUND('',#146,.T.);
#60=FACE_BOUND('',#148,.T.);
#61=FACE_BOUND('',#150,.T.);
#62=FACE_BOUND('',#152,.T.);
#63=FACE_BOUND('',#154,.T.);
#64=FACE_BOUND('',#156,.T.);
#65=FACE_BOUND('',#158,.T.);
#66=FACE_BOUND('',#160,.T.);
#67=FACE_BOUND('',#162,.T.);
#68=FACE_BOUND('',#164,.T.);
#69=FACE_BOUND('',#166,.T.);
#70=FACE_BOUND('',#168,.T.);
#71=FACE_BOUND('',#171,.T.);
#72=FACE_BOUND('',#172,.T.);
#73=FACE_BOUND('',#176,.T.);
#74=FACE_BOUND('',#177,.T.);
#75=FACE_BOUND('',#178,.T.);
#76=FACE_BOUND('',#179,.T.);
#77=FACE_BOUND('',#180,.T.);
#78=FACE_BOUND('',#181,.T.);
#79=FACE_BOUND('',#183,.T.);
#80=FACE_BOUND('',#184,.T.);
#81=FACE_BOUND('',#185,.T.);
#82=FACE_BOUND('',#186,.T.);
#83=FACE_BOUND('',#187,.T.);
#84=FACE_BOUND('',#188,.T.);
#85=CYLINDRICAL_SURFACE('',#413,2.4585);
#86=CYLINDRICAL_SURFACE('',#417,2.4585);
#87=CYLINDRICAL_SURFACE('',#422,6.75);
#88=CYLINDRICAL_SURFACE('',#424,4.1);
#89=CYLINDRICAL_SURFACE('',#429,6.75);
#90=CYLINDRICAL_SURFACE('',#431,4.1);
#91=CYLINDRICAL_SURFACE('',#436,5.5);
#92=CYLINDRICAL_SURFACE('',#438,3.1);
#93=CYLINDRICAL_SURFACE('',#443,5.5);
#94=CYLINDRICAL_SURFACE('',#445,3.1);
#95=CYLINDRICAL_SURFACE('',#450,5.5);
#96=CYLINDRICAL_SURFACE('',#452,3.1);
#97=CYLINDRICAL_SURFACE('',#457,5.5);
#98=CYLINDRICAL_SURFACE('',#459,3.1);
#99=FACE_OUTER_BOUND('',#127,.T.);
#100=FACE_OUTER_BOUND('',#128,.T.);
#101=FACE_OUTER_BOUND('',#130,.T.);
#102=FACE_OUTER_BOUND('',#131,.T.);
#103=FACE_OUTER_BOUND('',#133,.T.);
#104=FACE_OUTER_BOUND('',#135,.T.);
#105=FACE_OUTER_BOUND('',#137,.T.);
#106=FACE_OUTER_BOUND('',#139,.T.);
#107=FACE_OUTER_BOUND('',#141,.T.);
#108=FACE_OUTER_BOUND('',#143,.T.);
#109=FACE_OUTER_BOUND('',#145,.T.);
#110=FACE_OUTER_BOUND('',#147,.T.);
#111=FACE_OUTER_BOUND('',#149,.T.);
#112=FACE_OUTER_BOUND('',#151,.T.);
#113=FACE_OUTER_BOUND('',#153,.T.);
#114=FACE_OUTER_BOUND('',#155,.T.);
#115=FACE_OUTER_BOUND('',#157,.T.);
#116=FACE_OUTER_BOUND('',#159,.T.);
#117=FACE_OUTER_BOUND('',#161,.T.);
#118=FACE_OUTER_BOUND('',#163,.T.);
#119=FACE_OUTER_BOUND('',#165,.T.);
#120=FACE_OUTER_BOUND('',#167,.T.);
#121=FACE_OUTER_BOUND('',#169,.T.);
#122=FACE_OUTER_BOUND('',#170,.T.);
#123=FACE_OUTER_BOUND('',#173,.T.);
#124=FACE_OUTER_BOUND('',#174,.T.);
#125=FACE_OUTER_BOUND('',#175,.T.);
#126=FACE_OUTER_BOUND('',#182,.T.);
#127=EDGE_LOOP('',(#293));
#128=EDGE_LOOP('',(#294));
#129=EDGE_LOOP('',(#295));
#130=EDGE_LOOP('',(#296));
#131=EDGE_LOOP('',(#297));
#132=EDGE_LOOP('',(#298));
#133=EDGE_LOOP('',(#299));
#134=EDGE_LOOP('',(#300));
#135=EDGE_LOOP('',(#301));
#136=EDGE_LOOP('',(#302));
#137=EDGE_LOOP('',(#303));
#138=EDGE_LOOP('',(#304));
#139=EDGE_LOOP('',(#305));
#140=EDGE_LOOP('',(#306));
#141=EDGE_LOOP('',(#307));
#142=EDGE_LOOP('',(#308));
#143=EDGE_LOOP('',(#309));
#144=EDGE_LOOP('',(#310));
#145=EDGE_LOOP('',(#311));
#146=EDGE_LOOP('',(#312));
#147=EDGE_LOOP('',(#313));
#148=EDGE_LOOP('',(#314));
#149=EDGE_LOOP('',(#315));
#150=EDGE_LOOP('',(#316));
#151=EDGE_LOOP('',(#317));
#152=EDGE_LOOP('',(#318));
#153=EDGE_LOOP('',(#319));
#154=EDGE_LOOP('',(#320));
#155=EDGE_LOOP('',(#321));
#156=EDGE_LOOP('',(#322));
#157=EDGE_LOOP('',(#323));
#158=EDGE_LOOP('',(#324));
#159=EDGE_LOOP('',(#325));
#160=EDGE_LOOP('',(#326));
#161=EDGE_LOOP('',(#327));
#162=EDGE_LOOP('',(#328));
#163=EDGE_LOOP('',(#329));
#164=EDGE_LOOP('',(#330));
#165=EDGE_LOOP('',(#331));
#166=EDGE_LOOP('',(#332));
#167=EDGE_LOOP('',(#333));
#168=EDGE_LOOP('',(#334));
#169=EDGE_LOOP('',(#335,#336,#337,#338));
#170=EDGE_LOOP('',(#339,#340,#341,#342));
#171=EDGE_LOOP('',(#343));
#172=EDGE_LOOP('',(#344));
#173=EDGE_LOOP('',(#345,#346,#347,#348));
#174=EDGE_LOOP('',(#349,#350,#351,#352));
#175=EDGE_LOOP('',(#353,#354,#355,#356));
#176=EDGE_LOOP('',(#357));
#177=EDGE_LOOP('',(#358));
#178=EDGE_LOOP('',(#359));
#179=EDGE_LOOP('',(#360));
#180=EDGE_LOOP('',(#361));
#181=EDGE_LOOP('',(#362));
#182=EDGE_LOOP('',(#363,#364,#365,#366));
#183=EDGE_LOOP('',(#367));
#184=EDGE_LOOP('',(#368));
#185=EDGE_LOOP('',(#369));
#186=EDGE_LOOP('',(#370));
#187=EDGE_LOOP('',(#371));
#188=EDGE_LOOP('',(#372));
#189=CIRCLE('',#412,2.4585);
#190=CIRCLE('',#414,2.4585);
#191=CIRCLE('',#416,2.4585);
#192=CIRCLE('',#418,2.4585);
#193=CIRCLE('',#420,6.75);
#194=CIRCLE('',#421,4.1);
#195=CIRCLE('',#423,6.75);
#196=CIRCLE('',#425,4.1);
#197=CIRCLE('',#427,6.75);
#198=CIRCLE('',#428,4.1);
#199=CIRCLE('',#430,6.75);
#200=CIRCLE('',#432,4.1);
#201=CIRCLE('',#434,5.5);
#202=CIRCLE('',#435,3.1);
#203=CIRCLE('',#437,5.5);
#204=CIRCLE('',#439,3.1);
#205=CIRCLE('',#441,5.5);
#206=CIRCLE('',#442,3.1);
#207=CIRCLE('',#444,5.5);
#208=CIRCLE('',#446,3.1);
#209=CIRCLE('',#448,5.5);
#210=CIRCLE('',#449,3.1);
#211=CIRCLE('',#451,5.5);
#212=CIRCLE('',#453,3.1);
#213=CIRCLE('',#455,5.5);
#214=CIRCLE('',#456,3.1);
#215=CIRCLE('',#458,5.5);
#216=CIRCLE('',#460,3.1);
#217=VERTEX_POINT('',#595);
#218=VERTEX_POINT('',#598);
#219=VERTEX_POINT('',#601);
#220=VERTEX_POINT('',#604);
#221=VERTEX_POINT('',#607);
#222=VERTEX_POINT('',#609);
#223=VERTEX_POINT('',#612);
#224=VERTEX_POINT('',#615);
#225=VERTEX_POINT('',#618);
#226=VERTEX_POINT('',#620);
#227=VERTEX_POINT('',#623);
#228=VERTEX_POINT('',#626);
#229=VERTEX_POINT('',#629);
#230=VERTEX_POINT('',#631);
#231=VERTEX_POINT('',#634);
#232=VERTEX_POINT('',#637);
#233=VERTEX_POINT('',#640);
#234=VERTEX_POINT('',#642);
#235=VERTEX_POINT('',#645);
#236=VERTEX_POINT('',#648);
#237=VERTEX_POINT('',#651);
#238=VERTEX_POINT('',#653);
#239=VERTEX_POINT('',#656);
#240=VERTEX_POINT('',#659);
#241=VERTEX_POINT('',#662);
#242=VERTEX_POINT('',#664);
#243=VERTEX_POINT('',#667);
#244=VERTEX_POINT('',#670);
#245=VERTEX_POINT('',#673);
#246=VERTEX_POINT('',#674);
#247=VERTEX_POINT('',#676);
#248=VERTEX_POINT('',#678);
#249=VERTEX_POINT('',#682);
#250=VERTEX_POINT('',#684);
#251=VERTEX_POINT('',#688);
#252=VERTEX_POINT('',#690);
#253=EDGE_CURVE('',#217,#217,#189,.T.);
#254=EDGE_CURVE('',#218,#218,#190,.T.);
#255=EDGE_CURVE('',#219,#219,#191,.T.);
#256=EDGE_CURVE('',#220,#220,#192,.T.);
#257=EDGE_CURVE('',#221,#221,#193,.T.);
#258=EDGE_CURVE('',#222,#222,#194,.T.);
#259=EDGE_CURVE('',#223,#223,#195,.T.);
#260=EDGE_CURVE('',#224,#224,#196,.T.);
#261=EDGE_CURVE('',#225,#225,#197,.T.);
#262=EDGE_CURVE('',#226,#226,#198,.T.);
#263=EDGE_CURVE('',#227,#227,#199,.T.);
#264=EDGE_CURVE('',#228,#228,#200,.T.);
#265=EDGE_CURVE('',#229,#229,#201,.T.);
#266=EDGE_CURVE('',#230,#230,#202,.T.);
#267=EDGE_CURVE('',#231,#231,#203,.T.);
#268=EDGE_CURVE('',#232,#232,#204,.T.);
#269=EDGE_CURVE('',#233,#233,#205,.T.);
#270=EDGE_CURVE('',#234,#234,#206,.T.);
#271=EDGE_CURVE('',#235,#235,#207,.T.);
#272=EDGE_CURVE('',#236,#236,#208,.T.);
#273=EDGE_CURVE('',#237,#237,#209,.T.);
#274=EDGE_CURVE('',#238,#238,#210,.T.);
#275=EDGE_CURVE('',#239,#239,#211,.T.);
#276=EDGE_CURVE('',#240,#240,#212,.T.);
#277=EDGE_CURVE('',#241,#241,#213,.T.);
#278=EDGE_CURVE('',#242,#242,#214,.T.);
#279=EDGE_CURVE('',#243,#243,#215,.T.);
#280=EDGE_CURVE('',#244,#244,#216,.T.);
#281=EDGE_CURVE('',#245,#246,#15,.T.);
#282=EDGE_CURVE('',#246,#247,#16,.T.);
#283=EDGE_CURVE('',#248,#247,#17,.T.);
#284=EDGE_CURVE('',#245,#248,#18,.T.);
#285=EDGE_CURVE('',#249,#245,#19,.T.);
#286=EDGE_CURVE('',#250,#248,#20,.T.);
#287=EDGE_CURVE('',#249,#250,#21,.T.);
#288=EDGE_CURVE('',#251,#249,#22,.T.);
#289=EDGE_CURVE('',#252,#250,#23,.T.);
#290=EDGE_CURVE('',#251,#252,#24,.T.);
#291=EDGE_CURVE('',#246,#251,#25,.T.);
#292=EDGE_CURVE('',#247,#252,#26,.T.);
#293=ORIENTED_EDGE('',*,*,#253,.T.);
#294=ORIENTED_EDGE('',*,*,#254,.F.);
#295=ORIENTED_EDGE('',*,*,#253,.F.);
#296=ORIENTED_EDGE('',*,*,#255,.T.);
#297=ORIENTED_EDGE('',*,*,#256,.F.);
#298=ORIENTED_EDGE('',*,*,#255,.F.);
#299=ORIENTED_EDGE('',*,*,#257,.T.);
#300=ORIENTED_EDGE('',*,*,#258,.F.);
#301=ORIENTED_EDGE('',*,*,#259,.F.);
#302=ORIENTED_EDGE('',*,*,#257,.F.);
#303=ORIENTED_EDGE('',*,*,#260,.F.);
#304=ORIENTED_EDGE('',*,*,#258,.T.);
#305=ORIENTED_EDGE('',*,*,#261,.T.);
#306=ORIENTED_EDGE('',*,*,#262,.F.);
#307=ORIENTED_EDGE('',*,*,#263,.F.);
#308=ORIENTED_EDGE('',*,*,#261,.F.);
#309=ORIENTED_EDGE('',*,*,#264,.F.);
#310=ORIENTED_EDGE('',*,*,#262,.T.);
#311=ORIENTED_EDGE('',*,*,#265,.T.);
#312=ORIENTED_EDGE('',*,*,#266,.F.);
#313=ORIENTED_EDGE('',*,*,#267,.F.);
#314=ORIENTED_EDGE('',*,*,#265,.F.);
#315=ORIENTED_EDGE('',*,*,#268,.F.);
#316=ORIENTED_EDGE('',*,*,#266,.T.);
#317=ORIENTED_EDGE('',*,*,#269,.T.);
#318=ORIENTED_EDGE('',*,*,#270,.F.);
#319=ORIENTED_EDGE('',*,*,#271,.F.);
#320=ORIENTED_EDGE('',*,*,#269,.F.);
#321=ORIENTED_EDGE('',*,*,#272,.F.);
#322=ORIENTED_EDGE('',*,*,#270,.T.);
#323=ORIENTED_EDGE('',*,*,#273,.T.);
#324=ORIENTED_EDGE('',*,*,#274,.F.);
#325=ORIENTED_EDGE('',*,*,#275,.F.);
#326=ORIENTED_EDGE('',*,*,#273,.F.);
#327=ORIENTED_EDGE('',*,*,#276,.F.);
#328=ORIENTED_EDGE('',*,*,#274,.T.);
#329=ORIENTED_EDGE('',*,*,#277,.T.);
#330=ORIENTED_EDGE('',*,*,#278,.F.);
#331=ORIENTED_EDGE('',*,*,#279,.F.);
#332=ORIENTED_EDGE('',*,*,#277,.F.);
#333=ORIENTED_EDGE('',*,*,#280,.F.);
#334=ORIENTED_EDGE('',*,*,#278,.T.);
#335=ORIENTED_EDGE('',*,*,#281,.T.);
#336=ORIENTED_EDGE('',*,*,#282,.T.);
#337=ORIENTED_EDGE('',*,*,#283,.F.);
#338=ORIENTED_EDGE('',*,*,#284,.F.);
#339=ORIENTED_EDGE('',*,*,#285,.T.);
#340=ORIENTED_EDGE('',*,*,#284,.T.);
#341=ORIENTED_EDGE('',*,*,#286,.F.);
#342=ORIENTED_EDGE('',*,*,#287,.F.);
#343=ORIENTED_EDGE('',*,*,#254,.T.);
#344=ORIENTED_EDGE('',*,*,#256,.T.);
#345=ORIENTED_EDGE('',*,*,#288,.T.);
#346=ORIENTED_EDGE('',*,*,#287,.T.);
#347=ORIENTED_EDGE('',*,*,#289,.F.);
#348=ORIENTED_EDGE('',*,*,#290,.F.);
#349=ORIENTED_EDGE('',*,*,#291,.T.);
#350=ORIENTED_EDGE('',*,*,#290,.T.);
#351=ORIENTED_EDGE('',*,*,#292,.F.);
#352=ORIENTED_EDGE('',*,*,#282,.F.);
#353=ORIENTED_EDGE('',*,*,#292,.T.);
#354=ORIENTED_EDGE('',*,*,#289,.T.);
#355=ORIENTED_EDGE('',*,*,#286,.T.);
#356=ORIENTED_EDGE('',*,*,#283,.T.);
#357=ORIENTED_EDGE('',*,*,#259,.T.);
#358=ORIENTED_EDGE('',*,*,#263,.T.);
#359=ORIENTED_EDGE('',*,*,#267,.T.);
#360=ORIENTED_EDGE('',*,*,#271,.T.);
#361=ORIENTED_EDGE('',*,*,#275,.T.);
#362=ORIENTED_EDGE('',*,*,#279,.T.);
#363=ORIENTED_EDGE('',*,*,#291,.F.);
#364=ORIENTED_EDGE('',*,*,#281,.F.);
#365=ORIENTED_EDGE('',*,*,#285,.F.);
#366=ORIENTED_EDGE('',*,*,#288,.F.);
#367=ORIENTED_EDGE('',*,*,#260,.T.);
#368=ORIENTED_EDGE('',*,*,#264,.T.);
#369=ORIENTED_EDGE('',*,*,#268,.T.);
#370=ORIENTED_EDGE('',*,*,#272,.T.);
#371=ORIENTED_EDGE('',*,*,#276,.T.);
#372=ORIENTED_EDGE('',*,*,#280,.T.);
#373=CONICAL_SURFACE('',#411,1.22925,59.);
#374=CONICAL_SURFACE('',#415,1.22925,59.);
#375=ADVANCED_FACE('',(#99),#373,.F.);
#376=ADVANCED_FACE('',(#100,#51),#85,.F.);
#377=ADVANCED_FACE('',(#101),#374,.F.);
#378=ADVANCED_FACE('',(#102,#52),#86,.F.);
#379=ADVANCED_FACE('',(#103,#53),#39,.T.);
#380=ADVANCED_FACE('',(#104,#54),#87,.F.);
#381=ADVANCED_FACE('',(#105,#55),#88,.F.);
#382=ADVANCED_FACE('',(#106,#56),#40,.T.);
#383=ADVANCED_FACE('',(#107,#57),#89,.F.);
#384=ADVANCED_FACE('',(#108,#58),#90,.F.);
#385=ADVANCED_FACE('',(#109,#59),#41,.T.);
#386=ADVANCED_FACE('',(#110,#60),#91,.F.);
#387=ADVANCED_FACE('',(#111,#61),#92,.F.);
#388=ADVANCED_FACE('',(#112,#62),#42,.T.);
#389=ADVANCED_FACE('',(#113,#63),#93,.F.);
#390=ADVANCED_FACE('',(#114,#64),#94,.F.);
#391=ADVANCED_FACE('',(#115,#65),#43,.T.);
#392=ADVANCED_FACE('',(#116,#66),#95,.F.);
#393=ADVANCED_FACE('',(#117,#67),#96,.F.);
#394=ADVANCED_FACE('',(#118,#68),#44,.T.);
#395=ADVANCED_FACE('',(#119,#69),#97,.F.);
#396=ADVANCED_FACE('',(#120,#70),#98,.F.);
#397=ADVANCED_FACE('',(#121),#45,.T.);
#398=ADVANCED_FACE('',(#122,#71,#72),#46,.T.);
#399=ADVANCED_FACE('',(#123),#47,.T.);
#400=ADVANCED_FACE('',(#124),#48,.T.);
#401=ADVANCED_FACE('',(#125,#73,#74,#75,#76,#77,#78),#49,.T.);
#402=ADVANCED_FACE('',(#126,#79,#80,#81,#82,#83,#84),#50,.F.);
#403=CLOSED_SHELL('',(#375,#376,#377,#378,#379,#380,#381,#382,#383,#384,
#385,#386,#387,#388,#389,#390,#391,#392,#393,#394,#395,#396,#397,#398,#399,
#400,#401,#402));
#404=DATE_TIME_ROLE('creation_date');
#405=APPLIED_DATE_AND_TIME_ASSIGNMENT(#406,#404,(#712));
#406=DATE_AND_TIME(#407,#408);
#407=CALENDAR_DATE(2021,20,2);
#408=LOCAL_TIME(16,29,17.,#409);
#409=COORDINATED_UNIVERSAL_TIME_OFFSET(0,0,.BEHIND.);
#410=AXIS2_PLACEMENT_3D('placement',#593,#467,#468);
#411=AXIS2_PLACEMENT_3D('',#594,#469,#470);
#412=AXIS2_PLACEMENT_3D('',#596,#471,#472);
#413=AXIS2_PLACEMENT_3D('',#597,#473,#474);
#414=AXIS2_PLACEMENT_3D('',#599,#475,#476);
#415=AXIS2_PLACEMENT_3D('',#600,#477,#478);
#416=AXIS2_PLACEMENT_3D('',#602,#479,#480);
#417=AXIS2_PLACEMENT_3D('',#603,#481,#482);
#418=AXIS2_PLACEMENT_3D('',#605,#483,#484);
#419=AXIS2_PLACEMENT_3D('',#606,#485,#486);
#420=AXIS2_PLACEMENT_3D('',#608,#487,#488);
#421=AXIS2_PLACEMENT_3D('',#610,#489,#490);
#422=AXIS2_PLACEMENT_3D('',#611,#491,#492);
#423=AXIS2_PLACEMENT_3D('',#613,#493,#494);
#424=AXIS2_PLACEMENT_3D('',#614,#495,#496);
#425=AXIS2_PLACEMENT_3D('',#616,#497,#498);
#426=AXIS2_PLACEMENT_3D('',#617,#499,#500);
#427=AXIS2_PLACEMENT_3D('',#619,#501,#502);
#428=AXIS2_PLACEMENT_3D('',#621,#503,#504);
#429=AXIS2_PLACEMENT_3D('',#622,#505,#506);
#430=AXIS2_PLACEMENT_3D('',#624,#507,#508);
#431=AXIS2_PLACEMENT_3D('',#625,#509,#510);
#432=AXIS2_PLACEMENT_3D('',#627,#511,#512);
#433=AXIS2_PLACEMENT_3D('',#628,#513,#514);
#434=AXIS2_PLACEMENT_3D('',#630,#515,#516);
#435=AXIS2_PLACEMENT_3D('',#632,#517,#518);
#436=AXIS2_PLACEMENT_3D('',#633,#519,#520);
#437=AXIS2_PLACEMENT_3D('',#635,#521,#522);
#438=AXIS2_PLACEMENT_3D('',#636,#523,#524);
#439=AXIS2_PLACEMENT_3D('',#638,#525,#526);
#440=AXIS2_PLACEMENT_3D('',#639,#527,#528);
#441=AXIS2_PLACEMENT_3D('',#641,#529,#530);
#442=AXIS2_PLACEMENT_3D('',#643,#531,#532);
#443=AXIS2_PLACEMENT_3D('',#644,#533,#534);
#444=AXIS2_PLACEMENT_3D('',#646,#535,#536);
#445=AXIS2_PLACEMENT_3D('',#647,#537,#538);
#446=AXIS2_PLACEMENT_3D('',#649,#539,#540);
#447=AXIS2_PLACEMENT_3D('',#650,#541,#542);
#448=AXIS2_PLACEMENT_3D('',#652,#543,#544);
#449=AXIS2_PLACEMENT_3D('',#654,#545,#546);
#450=AXIS2_PLACEMENT_3D('',#655,#547,#548);
#451=AXIS2_PLACEMENT_3D('',#657,#549,#550);
#452=AXIS2_PLACEMENT_3D('',#658,#551,#552);
#453=AXIS2_PLACEMENT_3D('',#660,#553,#554);
#454=AXIS2_PLACEMENT_3D('',#661,#555,#556);
#455=AXIS2_PLACEMENT_3D('',#663,#557,#558);
#456=AXIS2_PLACEMENT_3D('',#665,#559,#560);
#457=AXIS2_PLACEMENT_3D('',#666,#561,#562);
#458=AXIS2_PLACEMENT_3D('',#668,#563,#564);
#459=AXIS2_PLACEMENT_3D('',#669,#565,#566);
#460=AXIS2_PLACEMENT_3D('',#671,#567,#568);
#461=AXIS2_PLACEMENT_3D('',#672,#569,#570);
#462=AXIS2_PLACEMENT_3D('',#681,#575,#576);
#463=AXIS2_PLACEMENT_3D('',#687,#580,#581);
#464=AXIS2_PLACEMENT_3D('',#693,#585,#586);
#465=AXIS2_PLACEMENT_3D('',#696,#589,#590);
#466=AXIS2_PLACEMENT_3D('',#697,#591,#592);
#467=DIRECTION('axis',(0.,0.,1.));
#468=DIRECTION('refdir',(1.,0.,0.));
#469=DIRECTION('center_axis',(2.51006944697861E-16,-1.,0.));
#470=DIRECTION('ref_axis',(1.,2.51006944697862E-16,0.));
#471=DIRECTION('center_axis',(2.51006944697861E-16,-1.,0.));
#472=DIRECTION('ref_axis',(1.,2.51006944697862E-16,0.));
#473=DIRECTION('center_axis',(2.51006944697861E-16,-1.,0.));
#474=DIRECTION('ref_axis',(1.,2.51006944697862E-16,0.));
#475=DIRECTION('center_axis',(-2.51006944697861E-16,1.,0.));
#476=DIRECTION('ref_axis',(1.,2.51006944697862E-16,0.));
#477=DIRECTION('center_axis',(2.51006944697861E-16,-1.,0.));
#478=DIRECTION('ref_axis',(1.,2.51006944697862E-16,0.));
#479=DIRECTION('center_axis',(2.51006944697861E-16,-1.,0.));
#480=DIRECTION('ref_axis',(1.,2.51006944697862E-16,0.));
#481=DIRECTION('center_axis',(2.51006944697861E-16,-1.,0.));
#482=DIRECTION('ref_axis',(1.,2.51006944697862E-16,0.));
#483=DIRECTION('center_axis',(-2.51006944697861E-16,1.,0.));
#484=DIRECTION('ref_axis',(1.,2.51006944697862E-16,0.));
#485=DIRECTION('center_axis',(0.,0.,1.));
#486=DIRECTION('ref_axis',(1.,0.,0.));
#487=DIRECTION('center_axis',(0.,0.,1.));
#488=DIRECTION('ref_axis',(1.,0.,0.));
#489=DIRECTION('center_axis',(0.,0.,1.));
#490=DIRECTION('ref_axis',(1.,0.,0.));
#491=DIRECTION('center_axis',(0.,0.,1.));
#492=DIRECTION('ref_axis',(1.,0.,0.));
#493=DIRECTION('center_axis',(0.,0.,-1.));
#494=DIRECTION('ref_axis',(1.,0.,0.));
#495=DIRECTION('center_axis',(0.,0.,1.));
#496=DIRECTION('ref_axis',(1.,0.,0.));
#497=DIRECTION('center_axis',(0.,0.,1.));
#498=DIRECTION('ref_axis',(1.,0.,0.));
#499=DIRECTION('center_axis',(0.,0.,1.));
#500=DIRECTION('ref_axis',(1.,0.,0.));
#501=DIRECTION('center_axis',(0.,0.,1.));
#502=DIRECTION('ref_axis',(1.,0.,0.));
#503=DIRECTION('center_axis',(0.,0.,1.));
#504=DIRECTION('ref_axis',(1.,0.,0.));
#505=DIRECTION('center_axis',(0.,0.,1.));
#506=DIRECTION('ref_axis',(1.,0.,0.));
#507=DIRECTION('center_axis',(0.,0.,-1.));
#508=DIRECTION('ref_axis',(1.,0.,0.));
#509=DIRECTION('center_axis',(0.,0.,1.));
#510=DIRECTION('ref_axis',(1.,0.,0.));
#511=DIRECTION('center_axis',(0.,0.,1.));
#512=DIRECTION('ref_axis',(1.,0.,0.));
#513=DIRECTION('center_axis',(0.,0.,1.));
#514=DIRECTION('ref_axis',(1.,0.,0.));
#515=DIRECTION('center_axis',(0.,0.,1.));
#516=DIRECTION('ref_axis',(1.,0.,0.));
#517=DIRECTION('center_axis',(0.,0.,1.));
#518=DIRECTION('ref_axis',(1.,0.,0.));
#519=DIRECTION('center_axis',(0.,0.,1.));
#520=DIRECTION('ref_axis',(1.,0.,0.));
#521=DIRECTION('center_axis',(0.,0.,-1.));
#522=DIRECTION('ref_axis',(1.,0.,0.));
#523=DIRECTION('center_axis',(0.,0.,1.));
#524=DIRECTION('ref_axis',(1.,0.,0.));
#525=DIRECTION('center_axis',(0.,0.,1.));
#526=DIRECTION('ref_axis',(1.,0.,0.));
#527=DIRECTION('center_axis',(0.,0.,1.));
#528=DIRECTION('ref_axis',(1.,0.,0.));
#529=DIRECTION('center_axis',(0.,0.,1.));
#530=DIRECTION('ref_axis',(1.,0.,0.));
#531=DIRECTION('center_axis',(0.,0.,1.));
#532=DIRECTION('ref_axis',(1.,0.,0.));
#533=DIRECTION('center_axis',(0.,0.,1.));
#534=DIRECTION('ref_axis',(1.,0.,0.));
#535=DIRECTION('center_axis',(0.,0.,-1.));
#536=DIRECTION('ref_axis',(1.,0.,0.));
#537=DIRECTION('center_axis',(0.,0.,1.));
#538=DIRECTION('ref_axis',(1.,0.,0.));
#539=DIRECTION('center_axis',(0.,0.,1.));
#540=DIRECTION('ref_axis',(1.,0.,0.));
#541=DIRECTION('center_axis',(0.,0.,1.));
#542=DIRECTION('ref_axis',(1.,0.,0.));
#543=DIRECTION('center_axis',(0.,0.,1.));
#544=DIRECTION('ref_axis',(1.,0.,0.));
#545=DIRECTION('center_axis',(0.,0.,1.));
#546=DIRECTION('ref_axis',(1.,0.,0.));
#547=DIRECTION('center_axis',(0.,0.,1.));
#548=DIRECTION('ref_axis',(1.,0.,0.));
#549=DIRECTION('center_axis',(0.,0.,-1.));
#550=DIRECTION('ref_axis',(1.,0.,0.));
#551=DIRECTION('center_axis',(0.,0.,1.));
#552=DIRECTION('ref_axis',(1.,0.,0.));
#553=DIRECTION('center_axis',(0.,0.,1.));
#554=DIRECTION('ref_axis',(1.,0.,0.));
#555=DIRECTION('center_axis',(0.,0.,1.));
#556=DIRECTION('ref_axis',(1.,0.,0.));
#557=DIRECTION('center_axis',(0.,0.,1.));
#558=DIRECTION('ref_axis',(1.,0.,0.));
#559=DIRECTION('center_axis',(0.,0.,1.));
#560=DIRECTION('ref_axis',(1.,0.,0.));
#561=DIRECTION('center_axis',(0.,0.,1.));
#562=DIRECTION('ref_axis',(1.,0.,0.));
#563=DIRECTION('center_axis',(0.,0.,-1.));
#564=DIRECTION('ref_axis',(1.,0.,0.));
#565=DIRECTION('center_axis',(0.,0.,1.));
#566=DIRECTION('ref_axis',(1.,0.,0.));
#567=DIRECTION('center_axis',(0.,0.,1.));
#568=DIRECTION('ref_axis',(1.,0.,0.));
#569=DIRECTION('center_axis',(1.,0.,0.));
#570=DIRECTION('ref_axis',(0.,1.,0.));
#571=DIRECTION('',(0.,1.,0.));
#572=DIRECTION('',(0.,0.,1.));
#573=DIRECTION('',(0.,1.,0.));
#574=DIRECTION('',(0.,0.,1.));
#575=DIRECTION('center_axis',(2.51006944697861E-16,-1.,0.));
#576=DIRECTION('ref_axis',(1.,0.,0.));
#577=DIRECTION('',(1.,2.51006944697861E-16,0.));
#578=DIRECTION('',(1.,2.51006944697861E-16,0.));
#579=DIRECTION('',(0.,0.,1.));
#580=DIRECTION('center_axis',(-1.,0.,0.));
#581=DIRECTION('ref_axis',(0.,-1.,0.));
#582=DIRECTION('',(0.,-1.,0.));
#583=DIRECTION('',(0.,-1.,0.));
#584=DIRECTION('',(0.,0.,1.));
#585=DIRECTION('center_axis',(2.51006944697861E-16,1.,0.));
#586=DIRECTION('ref_axis',(-1.,0.,0.));
#587=DIRECTION('',(-1.,2.51006944697861E-16,0.));
#588=DIRECTION('',(-1.,2.51006944697861E-16,0.));
#589=DIRECTION('center_axis',(0.,0.,1.));
#590=DIRECTION('ref_axis',(1.,0.,0.));
#591=DIRECTION('center_axis',(0.,0.,1.));
#592=DIRECTION('ref_axis',(1.,0.,0.));
#593=CARTESIAN_POINT('',(0.,0.,0.));
#594=CARTESIAN_POINT('Origin',(-170.,-13.0113920840604,8.));
#595=CARTESIAN_POINT('',(-167.5415,-13.75,8.));
#596=CARTESIAN_POINT('Origin',(-170.,-13.75,8.));
#597=CARTESIAN_POINT('Origin',(-170.,-23.75,8.));
#598=CARTESIAN_POINT('',(-167.5415,-33.75,8.));
#599=CARTESIAN_POINT('Origin',(-170.,-33.75,8.));
#600=CARTESIAN_POINT('Origin',(230.,-13.0113920840603,8.));
#601=CARTESIAN_POINT('',(232.4585,-13.7499999999999,8.));
#602=CARTESIAN_POINT('Origin',(230.,-13.7499999999999,8.));
#603=CARTESIAN_POINT('Origin',(230.,-23.7499999999999,8.));
#604=CARTESIAN_POINT('',(232.4585,-33.7499999999999,8.));
#605=CARTESIAN_POINT('Origin',(230.,-33.7499999999999,8.));
#606=CARTESIAN_POINT('Origin',(-115.,23.7499999999999,8.));
#607=CARTESIAN_POINT('',(-108.25,23.7499999999999,8.));
#608=CARTESIAN_POINT('Origin',(-115.,23.7499999999999,8.));
#609=CARTESIAN_POINT('',(-119.1,23.7499999999999,8.00000000000003));
#610=CARTESIAN_POINT('Origin',(-115.,23.7499999999999,8.00000000000003));
#611=CARTESIAN_POINT('Origin',(-115.,23.7499999999999,12.));
#612=CARTESIAN_POINT('',(-108.25,23.7499999999999,16.));
#613=CARTESIAN_POINT('Origin',(-115.,23.7499999999999,16.));
#614=CARTESIAN_POINT('Origin',(-115.,23.7499999999999,-453.201300514089));
#615=CARTESIAN_POINT('',(-119.1,23.7499999999999,0.));
#616=CARTESIAN_POINT('Origin',(-115.,23.7499999999999,0.));
#617=CARTESIAN_POINT('Origin',(55.,23.7499999999999,8.));
#618=CARTESIAN_POINT('',(61.75,23.7499999999999,8.));
#619=CARTESIAN_POINT('Origin',(55.,23.7499999999999,8.));
#620=CARTESIAN_POINT('',(50.9,23.7499999999999,8.00000000000003));
#621=CARTESIAN_POINT('Origin',(55.,23.7499999999999,8.00000000000003));
#622=CARTESIAN_POINT('Origin',(55.,23.7499999999999,12.));
#623=CARTESIAN_POINT('',(61.75,23.7499999999999,16.));
#624=CARTESIAN_POINT('Origin',(55.,23.7499999999999,16.));
#625=CARTESIAN_POINT('Origin',(55.,23.7499999999999,-453.201300514089));
#626=CARTESIAN_POINT('',(50.9,23.7499999999999,0.));
#627=CARTESIAN_POINT('Origin',(55.,23.7499999999999,0.));
#628=CARTESIAN_POINT('Origin',(252.,-25.75,10.));
#629=CARTESIAN_POINT('',(257.5,-25.75,10.));
#630=CARTESIAN_POINT('Origin',(252.,-25.75,10.));
#631=CARTESIAN_POINT('',(248.9,-25.75,9.99999999999999));
#632=CARTESIAN_POINT('Origin',(252.,-25.75,9.99999999999999));
#633=CARTESIAN_POINT('Origin',(252.,-25.75,13.));
#634=CARTESIAN_POINT('',(257.5,-25.75,16.));
#635=CARTESIAN_POINT('Origin',(252.,-25.75,16.));
#636=CARTESIAN_POINT('Origin',(252.,-25.75,-452.201300514089));
#637=CARTESIAN_POINT('',(248.9,-25.75,0.));
#638=CARTESIAN_POINT('Origin',(252.,-25.75,0.));
#639=CARTESIAN_POINT('Origin',(-192.,-25.75,10.));
#640=CARTESIAN_POINT('',(-186.5,-25.75,10.));
#641=CARTESIAN_POINT('Origin',(-192.,-25.75,10.));
#642=CARTESIAN_POINT('',(-195.1,-25.75,9.99999999999999));
#643=CARTESIAN_POINT('Origin',(-192.,-25.75,9.99999999999999));
#644=CARTESIAN_POINT('Origin',(-192.,-25.75,13.));
#645=CARTESIAN_POINT('',(-186.5,-25.75,16.));
#646=CARTESIAN_POINT('Origin',(-192.,-25.75,16.));
#647=CARTESIAN_POINT('Origin',(-192.,-25.75,-452.201300514089));
#648=CARTESIAN_POINT('',(-195.1,-25.75,0.));
#649=CARTESIAN_POINT('Origin',(-192.,-25.75,0.));
#650=CARTESIAN_POINT('Origin',(-192.,25.75,10.));
#651=CARTESIAN_POINT('',(-186.5,25.75,10.));
#652=CARTESIAN_POINT('Origin',(-192.,25.75,10.));
#653=CARTESIAN_POINT('',(-195.1,25.75,9.99999999999999));
#654=CARTESIAN_POINT('Origin',(-192.,25.75,9.99999999999999));
#655=CARTESIAN_POINT('Origin',(-192.,25.75,13.));
#656=CARTESIAN_POINT('',(-186.5,25.75,16.));
#657=CARTESIAN_POINT('Origin',(-192.,25.75,16.));
#658=CARTESIAN_POINT('Origin',(-192.,25.75,-452.201300514089));
#659=CARTESIAN_POINT('',(-195.1,25.75,0.));
#660=CARTESIAN_POINT('Origin',(-192.,25.75,0.));
#661=CARTESIAN_POINT('Origin',(252.,25.75,10.));
#662=CARTESIAN_POINT('',(257.5,25.75,10.));
#663=CARTESIAN_POINT('Origin',(252.,25.75,10.));
#664=CARTESIAN_POINT('',(248.9,25.75,9.99999999999999));
#665=CARTESIAN_POINT('Origin',(252.,25.75,9.99999999999999));
#666=CARTESIAN_POINT('Origin',(252.,25.75,13.));
#667=CARTESIAN_POINT('',(257.5,25.75,16.));
#668=CARTESIAN_POINT('Origin',(252.,25.75,16.));
#669=CARTESIAN_POINT('Origin',(252.,25.75,-452.201300514089));
#670=CARTESIAN_POINT('',(248.9,25.75,0.));
#671=CARTESIAN_POINT('Origin',(252.,25.75,0.));
#672=CARTESIAN_POINT('Origin',(260.,-33.7499999999999,0.));
#673=CARTESIAN_POINT('',(260.,-33.7499999999999,0.));
#674=CARTESIAN_POINT('',(260.,33.7499999999999,0.));
#675=CARTESIAN_POINT('',(260.,-33.7499999999999,0.));
#676=CARTESIAN_POINT('',(260.,33.7499999999999,16.));
#677=CARTESIAN_POINT('',(260.,33.7499999999999,0.));
#678=CARTESIAN_POINT('',(260.,-33.7499999999999,16.));
#679=CARTESIAN_POINT('',(260.,-33.7499999999999,16.));
#680=CARTESIAN_POINT('',(260.,-33.7499999999999,0.));
#681=CARTESIAN_POINT('Origin',(-200.,-33.75,0.));
#682=CARTESIAN_POINT('',(-200.,-33.75,0.));
#683=CARTESIAN_POINT('',(-200.,-33.75,0.));
#684=CARTESIAN_POINT('',(-200.,-33.75,16.));
#685=CARTESIAN_POINT('',(-200.,-33.75,16.));
#686=CARTESIAN_POINT('',(-200.,-33.75,0.));
#687=CARTESIAN_POINT('Origin',(-200.,33.75,0.));
#688=CARTESIAN_POINT('',(-200.,33.75,0.));
#689=CARTESIAN_POINT('',(-200.,33.75,0.));
#690=CARTESIAN_POINT('',(-200.,33.75,16.));
#691=CARTESIAN_POINT('',(-200.,33.75,16.));
#692=CARTESIAN_POINT('',(-200.,33.75,0.));
#693=CARTESIAN_POINT('Origin',(260.,33.7499999999999,0.));
#694=CARTESIAN_POINT('',(260.,33.7499999999999,0.));
#695=CARTESIAN_POINT('',(260.,33.7499999999999,16.));
#696=CARTESIAN_POINT('Origin',(29.9999999999999,0.,16.));
#697=CARTESIAN_POINT('Origin',(29.9999999999999,0.,0.));
#698=UNCERTAINTY_MEASURE_WITH_UNIT(LENGTH_MEASURE(0.01),#702,
'DISTANCE_ACCURACY_VALUE',
'Maximum model space distance between geometric entities at asserted c
onnectivities');
#699=UNCERTAINTY_MEASURE_WITH_UNIT(LENGTH_MEASURE(1.E-6),#702,
'DISTANCE_ACCURACY_VALUE',
'Maximum model space distance between geometric entities at asserted c
onnectivities');
#700=(
GEOMETRIC_REPRESENTATION_CONTEXT(3)
GLOBAL_UNCERTAINTY_ASSIGNED_CONTEXT((#698))
GLOBAL_UNIT_ASSIGNED_CONTEXT((#702,#705,#703))
REPRESENTATION_CONTEXT('','3D')
);
#701=(
GEOMETRIC_REPRESENTATION_CONTEXT(3)
GLOBAL_UNCERTAINTY_ASSIGNED_CONTEXT((#699))
GLOBAL_UNIT_ASSIGNED_CONTEXT((#702,#705,#703))
REPRESENTATION_CONTEXT('','3D')
);
#702=(
LENGTH_UNIT()
NAMED_UNIT(*)
SI_UNIT(.MILLI.,.METRE.)
);
#703=(
NAMED_UNIT(*)
SI_UNIT($,.STERADIAN.)
SOLID_ANGLE_UNIT()
);
#704=DIMENSIONAL_EXPONENTS(0.,0.,0.,0.,0.,0.,0.);
#705=(
CONVERSION_BASED_UNIT('degree',#707)
NAMED_UNIT(#704)
PLANE_ANGLE_UNIT()
);
#706=(
NAMED_UNIT(*)
PLANE_ANGLE_UNIT()
SI_UNIT($,.RADIAN.)
);
#707=PLANE_ANGLE_MEASURE_WITH_UNIT(PLANE_ANGLE_MEASURE(0.01745329252),#706);
#708=SHAPE_DEFINITION_REPRESENTATION(#709,#710);
#709=PRODUCT_DEFINITION_SHAPE('',$,#712);
#710=SHAPE_REPRESENTATION('',(#410),#700);
#711=PRODUCT_DEFINITION_CONTEXT('part definition',#716,'design');
#712=PRODUCT_DEFINITION('chassis_2','chassis_2',#713,#711);
#713=PRODUCT_DEFINITION_FORMATION('',$,#718);
#714=PRODUCT_RELATED_PRODUCT_CATEGORY('chassis_2','chassis_2',(#718));
#715=APPLICATION_PROTOCOL_DEFINITION('international standard',
'automotive_design',2009,#716);
#716=APPLICATION_CONTEXT(
'Core Data for Automotive Mechanical Design Process');
#717=PRODUCT_CONTEXT('part definition',#716,'mechanical');
#718=PRODUCT('chassis_2','chassis_2',$,(#717));
#719=PRESENTATION_STYLE_ASSIGNMENT((#720));
#720=SURFACE_STYLE_USAGE(.BOTH.,#721);
#721=SURFACE_SIDE_STYLE('',(#722));
#722=SURFACE_STYLE_FILL_AREA(#723);
#723=FILL_AREA_STYLE('',(#724));
#724=FILL_AREA_STYLE_COLOUR('',#725);
#725=COLOUR_RGB('',0.768627450980392,0.76078431372549,0.8);
ENDSEC;
END-ISO-10303-21;
