ISO-10303-21;
HEADER;
/* Generated by software containing ST-Developer
 * from STEP Tools, Inc. (www.steptools.com) 
 */

FILE_DESCRIPTION(
/* description */ (''),
/* implementation_level */ '2;1');

FILE_NAME(
/* name */ 'E:\\stephane_larhant\\step\\support_moteur1.stp',
/* time_stamp */ '2021-03-29T18:10:28+02:00',
/* author */ ('Utilisateur'),
/* organization */ (''),
/* preprocessor_version */ 'ST-DEVELOPER v16.5',
/* originating_system */ 'Autodesk Inventor 2017',
/* authorisation */ '');

FILE_SCHEMA (('AUTOMOTIVE_DESIGN { 1 0 10303 214 3 1 1 }'));
ENDSEC;

DATA;
#10=MECHANICAL_DESIGN_GEOMETRIC_PRESENTATION_REPRESENTATION('',(#13),#493);
#11=SHAPE_REPRESENTATION_RELATIONSHIP('SRR','None',#502,#12);
#12=ADVANCED_BREP_SHAPE_REPRESENTATION('',(#14),#492);
#13=STYLED_ITEM('',(#511),#14);
#14=MANIFOLD_SOLID_BREP('Solide1',#262);
#15=PLANE('',#293);
#16=PLANE('',#294);
#17=PLANE('',#295);
#18=PLANE('',#296);
#19=PLANE('',#297);
#20=PLANE('',#298);
#21=CONICAL_SURFACE('',#282,1.66175,59.);
#22=CONICAL_SURFACE('',#284,1.66175,59.);
#23=FACE_BOUND('',#52,.T.);
#24=FACE_BOUND('',#58,.T.);
#25=FACE_BOUND('',#60,.T.);
#26=FACE_BOUND('',#62,.T.);
#27=FACE_BOUND('',#65,.T.);
#28=FACE_BOUND('',#66,.T.);
#29=FACE_BOUND('',#69,.T.);
#30=FACE_BOUND('',#70,.T.);
#31=FACE_BOUND('',#73,.T.);
#32=FACE_BOUND('',#74,.T.);
#33=B_SPLINE_CURVE_WITH_KNOTS('',3,(#393,#394,#395,#396,#397,#398,#399,
#400,#401,#402,#403),.UNSPECIFIED.,.F.,.F.,(4,2,3,2,4),(-0.214033542583351,
-0.133209502329367,0.,0.117813963177772,0.214215243800176),
 .UNSPECIFIED.);
#34=B_SPLINE_CURVE_WITH_KNOTS('',3,(#404,#405,#406,#407,#408,#409,#410,
#411,#412,#413,#414,#415,#416,#417,#418,#419,#420,#421,#422,#423,#424,#425,
#426,#427,#428,#429,#430,#431,#432,#433,#434,#435,#436,#437,#438),
 .UNSPECIFIED.,.F.,.F.,(4,2,2,2,2,2,2,2,3,2,2,2,2,2,2,2,4),(-0.83551747575153,
-0.716972170791577,-0.597044344866982,-0.492315472618815,-0.387586600370649,
-0.324499416858754,-0.26141223334686,-0.13070611667343,0.,0.13070611667343,
0.26141223334686,0.324499416858754,0.387586600370649,0.492315472618815,
0.597044344866982,0.716972170791576,0.83551747575153),.UNSPECIFIED.);
#35=FACE_OUTER_BOUND('',#50,.T.);
#36=FACE_OUTER_BOUND('',#51,.T.);
#37=FACE_OUTER_BOUND('',#53,.T.);
#38=FACE_OUTER_BOUND('',#54,.T.);
#39=FACE_OUTER_BOUND('',#55,.T.);
#40=FACE_OUTER_BOUND('',#56,.T.);
#41=FACE_OUTER_BOUND('',#57,.T.);
#42=FACE_OUTER_BOUND('',#59,.T.);
#43=FACE_OUTER_BOUND('',#61,.T.);
#44=FACE_OUTER_BOUND('',#63,.T.);
#45=FACE_OUTER_BOUND('',#64,.T.);
#46=FACE_OUTER_BOUND('',#67,.T.);
#47=FACE_OUTER_BOUND('',#68,.T.);
#48=FACE_OUTER_BOUND('',#71,.T.);
#49=FACE_OUTER_BOUND('',#72,.T.);
#50=EDGE_LOOP('',(#176,#177,#178,#179));
#51=EDGE_LOOP('',(#180,#181,#182,#183));
#52=EDGE_LOOP('',(#184,#185));
#53=EDGE_LOOP('',(#186,#187,#188,#189));
#54=EDGE_LOOP('',(#190,#191,#192,#193));
#55=EDGE_LOOP('',(#194,#195));
#56=EDGE_LOOP('',(#196));
#57=EDGE_LOOP('',(#197));
#58=EDGE_LOOP('',(#198));
#59=EDGE_LOOP('',(#199,#200));
#60=EDGE_LOOP('',(#201));
#61=EDGE_LOOP('',(#202));
#62=EDGE_LOOP('',(#203));
#63=EDGE_LOOP('',(#204,#205,#206,#207));
#64=EDGE_LOOP('',(#208,#209,#210,#211));
#65=EDGE_LOOP('',(#212,#213,#214,#215));
#66=EDGE_LOOP('',(#216));
#67=EDGE_LOOP('',(#217,#218,#219,#220));
#68=EDGE_LOOP('',(#221,#222,#223,#224));
#69=EDGE_LOOP('',(#225,#226,#227,#228));
#70=EDGE_LOOP('',(#229));
#71=EDGE_LOOP('',(#230,#231,#232,#233));
#72=EDGE_LOOP('',(#234,#235,#236,#237));
#73=EDGE_LOOP('',(#238));
#74=EDGE_LOOP('',(#239));
#75=LINE('',#381,#91);
#76=LINE('',#384,#92);
#77=LINE('',#389,#93);
#78=LINE('',#444,#94);
#79=LINE('',#467,#95);
#80=LINE('',#469,#96);
#81=LINE('',#471,#97);
#82=LINE('',#472,#98);
#83=LINE('',#475,#99);
#84=LINE('',#477,#100);
#85=LINE('',#478,#101);
#86=LINE('',#481,#102);
#87=LINE('',#483,#103);
#88=LINE('',#484,#104);
#89=LINE('',#486,#105);
#90=LINE('',#487,#106);
#91=VECTOR('',#305,10.);
#92=VECTOR('',#308,10.);
#93=VECTOR('',#313,10.);
#94=VECTOR('',#322,10.);
#95=VECTOR('',#353,10.);
#96=VECTOR('',#354,10.);
#97=VECTOR('',#355,10.);
#98=VECTOR('',#356,10.);
#99=VECTOR('',#359,10.);
#100=VECTOR('',#360,10.);
#101=VECTOR('',#361,10.);
#102=VECTOR('',#364,10.);
#103=VECTOR('',#365,10.);
#104=VECTOR('',#366,10.);
#105=VECTOR('',#369,10.);
#106=VECTOR('',#370,10.);
#107=CIRCLE('',#271,59.1);
#108=CIRCLE('',#272,59.1);
#109=CIRCLE('',#274,4.1);
#110=CIRCLE('',#275,4.1);
#111=CIRCLE('',#277,4.1);
#112=CIRCLE('',#278,4.1);
#113=CIRCLE('',#280,50.9);
#114=CIRCLE('',#281,50.9);
#115=CIRCLE('',#283,3.3235);
#116=CIRCLE('',#285,3.3235);
#117=CIRCLE('',#287,3.3235);
#118=CIRCLE('',#289,3.3235);
#119=CIRCLE('',#291,4.1);
#120=CIRCLE('',#292,4.1);
#121=VERTEX_POINT('',#377);
#122=VERTEX_POINT('',#378);
#123=VERTEX_POINT('',#380);
#124=VERTEX_POINT('',#382);
#125=VERTEX_POINT('',#386);
#126=VERTEX_POINT('',#388);
#127=VERTEX_POINT('',#391);
#128=VERTEX_POINT('',#392);
#129=VERTEX_POINT('',#440);
#130=VERTEX_POINT('',#442);
#131=VERTEX_POINT('',#451);
#132=VERTEX_POINT('',#454);
#133=VERTEX_POINT('',#457);
#134=VERTEX_POINT('',#460);
#135=VERTEX_POINT('',#462);
#136=VERTEX_POINT('',#465);
#137=VERTEX_POINT('',#466);
#138=VERTEX_POINT('',#468);
#139=VERTEX_POINT('',#470);
#140=VERTEX_POINT('',#474);
#141=VERTEX_POINT('',#476);
#142=VERTEX_POINT('',#480);
#143=VERTEX_POINT('',#482);
#144=EDGE_CURVE('',#121,#122,#107,.T.);
#145=EDGE_CURVE('',#123,#121,#75,.T.);
#146=EDGE_CURVE('',#124,#123,#108,.T.);
#147=EDGE_CURVE('',#124,#122,#76,.T.);
#148=EDGE_CURVE('',#125,#121,#109,.T.);
#149=EDGE_CURVE('',#126,#125,#77,.T.);
#150=EDGE_CURVE('',#123,#126,#110,.T.);
#151=EDGE_CURVE('',#127,#128,#33,.T.);
#152=EDGE_CURVE('',#127,#128,#34,.T.);
#153=EDGE_CURVE('',#122,#129,#111,.T.);
#154=EDGE_CURVE('',#130,#124,#112,.T.);
#155=EDGE_CURVE('',#130,#129,#78,.T.);
#156=EDGE_CURVE('',#129,#125,#113,.T.);
#157=EDGE_CURVE('',#126,#130,#114,.T.);
#158=EDGE_CURVE('',#127,#128,#115,.T.);
#159=EDGE_CURVE('',#131,#131,#116,.T.);
#160=EDGE_CURVE('',#132,#132,#117,.T.);
#161=EDGE_CURVE('',#133,#133,#118,.T.);
#162=EDGE_CURVE('',#134,#134,#119,.T.);
#163=EDGE_CURVE('',#135,#135,#120,.T.);
#164=EDGE_CURVE('',#136,#137,#79,.T.);
#165=EDGE_CURVE('',#136,#138,#80,.T.);
#166=EDGE_CURVE('',#139,#138,#81,.T.);
#167=EDGE_CURVE('',#137,#139,#82,.T.);
#168=EDGE_CURVE('',#137,#140,#83,.T.);
#169=EDGE_CURVE('',#141,#139,#84,.T.);
#170=EDGE_CURVE('',#140,#141,#85,.T.);
#171=EDGE_CURVE('',#140,#142,#86,.T.);
#172=EDGE_CURVE('',#143,#141,#87,.T.);
#173=EDGE_CURVE('',#142,#143,#88,.T.);
#174=EDGE_CURVE('',#142,#136,#89,.T.);
#175=EDGE_CURVE('',#138,#143,#90,.T.);
#176=ORIENTED_EDGE('',*,*,#144,.F.);
#177=ORIENTED_EDGE('',*,*,#145,.F.);
#178=ORIENTED_EDGE('',*,*,#146,.F.);
#179=ORIENTED_EDGE('',*,*,#147,.T.);
#180=ORIENTED_EDGE('',*,*,#148,.F.);
#181=ORIENTED_EDGE('',*,*,#149,.F.);
#182=ORIENTED_EDGE('',*,*,#150,.F.);
#183=ORIENTED_EDGE('',*,*,#145,.T.);
#184=ORIENTED_EDGE('',*,*,#151,.T.);
#185=ORIENTED_EDGE('',*,*,#152,.F.);
#186=ORIENTED_EDGE('',*,*,#153,.F.);
#187=ORIENTED_EDGE('',*,*,#147,.F.);
#188=ORIENTED_EDGE('',*,*,#154,.F.);
#189=ORIENTED_EDGE('',*,*,#155,.T.);
#190=ORIENTED_EDGE('',*,*,#156,.F.);
#191=ORIENTED_EDGE('',*,*,#155,.F.);
#192=ORIENTED_EDGE('',*,*,#157,.F.);
#193=ORIENTED_EDGE('',*,*,#149,.T.);
#194=ORIENTED_EDGE('',*,*,#151,.F.);
#195=ORIENTED_EDGE('',*,*,#158,.T.);
#196=ORIENTED_EDGE('',*,*,#159,.T.);
#197=ORIENTED_EDGE('',*,*,#160,.F.);
#198=ORIENTED_EDGE('',*,*,#159,.F.);
#199=ORIENTED_EDGE('',*,*,#152,.T.);
#200=ORIENTED_EDGE('',*,*,#158,.F.);
#201=ORIENTED_EDGE('',*,*,#161,.F.);
#202=ORIENTED_EDGE('',*,*,#162,.F.);
#203=ORIENTED_EDGE('',*,*,#163,.F.);
#204=ORIENTED_EDGE('',*,*,#164,.F.);
#205=ORIENTED_EDGE('',*,*,#165,.T.);
#206=ORIENTED_EDGE('',*,*,#166,.F.);
#207=ORIENTED_EDGE('',*,*,#167,.F.);
#208=ORIENTED_EDGE('',*,*,#168,.F.);
#209=ORIENTED_EDGE('',*,*,#167,.T.);
#210=ORIENTED_EDGE('',*,*,#169,.F.);
#211=ORIENTED_EDGE('',*,*,#170,.F.);
#212=ORIENTED_EDGE('',*,*,#153,.T.);
#213=ORIENTED_EDGE('',*,*,#156,.T.);
#214=ORIENTED_EDGE('',*,*,#148,.T.);
#215=ORIENTED_EDGE('',*,*,#144,.T.);
#216=ORIENTED_EDGE('',*,*,#162,.T.);
#217=ORIENTED_EDGE('',*,*,#171,.F.);
#218=ORIENTED_EDGE('',*,*,#170,.T.);
#219=ORIENTED_EDGE('',*,*,#172,.F.);
#220=ORIENTED_EDGE('',*,*,#173,.F.);
#221=ORIENTED_EDGE('',*,*,#174,.F.);
#222=ORIENTED_EDGE('',*,*,#173,.T.);
#223=ORIENTED_EDGE('',*,*,#175,.F.);
#224=ORIENTED_EDGE('',*,*,#165,.F.);
#225=ORIENTED_EDGE('',*,*,#154,.T.);
#226=ORIENTED_EDGE('',*,*,#146,.T.);
#227=ORIENTED_EDGE('',*,*,#150,.T.);
#228=ORIENTED_EDGE('',*,*,#157,.T.);
#229=ORIENTED_EDGE('',*,*,#163,.T.);
#230=ORIENTED_EDGE('',*,*,#174,.T.);
#231=ORIENTED_EDGE('',*,*,#164,.T.);
#232=ORIENTED_EDGE('',*,*,#168,.T.);
#233=ORIENTED_EDGE('',*,*,#171,.T.);
#234=ORIENTED_EDGE('',*,*,#175,.T.);
#235=ORIENTED_EDGE('',*,*,#172,.T.);
#236=ORIENTED_EDGE('',*,*,#169,.T.);
#237=ORIENTED_EDGE('',*,*,#166,.T.);
#238=ORIENTED_EDGE('',*,*,#160,.T.);
#239=ORIENTED_EDGE('',*,*,#161,.T.);
#240=CYLINDRICAL_SURFACE('',#270,59.1);
#241=CYLINDRICAL_SURFACE('',#273,4.1);
#242=CYLINDRICAL_SURFACE('',#276,4.1);
#243=CYLINDRICAL_SURFACE('',#279,50.9);
#244=CYLINDRICAL_SURFACE('',#286,3.3235);
#245=CYLINDRICAL_SURFACE('',#288,3.3235);
#246=CYLINDRICAL_SURFACE('',#290,4.1);
#247=ADVANCED_FACE('',(#35),#240,.F.);
#248=ADVANCED_FACE('',(#36,#23),#241,.F.);
#249=ADVANCED_FACE('',(#37),#242,.F.);
#250=ADVANCED_FACE('',(#38),#243,.T.);
#251=ADVANCED_FACE('',(#39),#21,.F.);
#252=ADVANCED_FACE('',(#40),#22,.F.);
#253=ADVANCED_FACE('',(#41,#24),#244,.F.);
#254=ADVANCED_FACE('',(#42,#25),#245,.F.);
#255=ADVANCED_FACE('',(#43,#26),#246,.F.);
#256=ADVANCED_FACE('',(#44),#15,.T.);
#257=ADVANCED_FACE('',(#45,#27,#28),#16,.T.);
#258=ADVANCED_FACE('',(#46),#17,.T.);
#259=ADVANCED_FACE('',(#47,#29,#30),#18,.T.);
#260=ADVANCED_FACE('',(#48),#19,.F.);
#261=ADVANCED_FACE('',(#49,#31,#32),#20,.T.);
#262=CLOSED_SHELL('',(#247,#248,#249,#250,#251,#252,#253,#254,#255,#256,
#257,#258,#259,#260,#261));
#263=DATE_TIME_ROLE('creation_date');
#264=APPLIED_DATE_AND_TIME_ASSIGNMENT(#265,#263,(#504));
#265=DATE_AND_TIME(#266,#267);
#266=CALENDAR_DATE(2021,8,2);
#267=LOCAL_TIME(15,42,33.,#268);
#268=COORDINATED_UNIVERSAL_TIME_OFFSET(0,0,.BEHIND.);
#269=AXIS2_PLACEMENT_3D('placement',#375,#299,#300);
#270=AXIS2_PLACEMENT_3D('',#376,#301,#302);
#271=AXIS2_PLACEMENT_3D('',#379,#303,#304);
#272=AXIS2_PLACEMENT_3D('',#383,#306,#307);
#273=AXIS2_PLACEMENT_3D('',#385,#309,#310);
#274=AXIS2_PLACEMENT_3D('',#387,#311,#312);
#275=AXIS2_PLACEMENT_3D('',#390,#314,#315);
#276=AXIS2_PLACEMENT_3D('',#439,#316,#317);
#277=AXIS2_PLACEMENT_3D('',#441,#318,#319);
#278=AXIS2_PLACEMENT_3D('',#443,#320,#321);
#279=AXIS2_PLACEMENT_3D('',#445,#323,#324);
#280=AXIS2_PLACEMENT_3D('',#446,#325,#326);
#281=AXIS2_PLACEMENT_3D('',#447,#327,#328);
#282=AXIS2_PLACEMENT_3D('',#448,#329,#330);
#283=AXIS2_PLACEMENT_3D('',#449,#331,#332);
#284=AXIS2_PLACEMENT_3D('',#450,#333,#334);
#285=AXIS2_PLACEMENT_3D('',#452,#335,#336);
#286=AXIS2_PLACEMENT_3D('',#453,#337,#338);
#287=AXIS2_PLACEMENT_3D('',#455,#339,#340);
#288=AXIS2_PLACEMENT_3D('',#456,#341,#342);
#289=AXIS2_PLACEMENT_3D('',#458,#343,#344);
#290=AXIS2_PLACEMENT_3D('',#459,#345,#346);
#291=AXIS2_PLACEMENT_3D('',#461,#347,#348);
#292=AXIS2_PLACEMENT_3D('',#463,#349,#350);
#293=AXIS2_PLACEMENT_3D('',#464,#351,#352);
#294=AXIS2_PLACEMENT_3D('',#473,#357,#358);
#295=AXIS2_PLACEMENT_3D('',#479,#362,#363);
#296=AXIS2_PLACEMENT_3D('',#485,#367,#368);
#297=AXIS2_PLACEMENT_3D('',#488,#371,#372);
#298=AXIS2_PLACEMENT_3D('',#489,#373,#374);
#299=DIRECTION('axis',(0.,0.,1.));
#300=DIRECTION('refdir',(1.,0.,0.));
#301=DIRECTION('center_axis',(0.,-1.,0.));
#302=DIRECTION('ref_axis',(0.979795897113271,0.,0.2));
#303=DIRECTION('center_axis',(0.,1.,0.));
#304=DIRECTION('ref_axis',(0.979795897113271,0.,0.2));
#305=DIRECTION('',(0.,-1.,0.));
#306=DIRECTION('center_axis',(0.,-1.,0.));
#307=DIRECTION('ref_axis',(0.979795897113271,0.,0.2));
#308=DIRECTION('',(0.,-1.,0.));
#309=DIRECTION('center_axis',(0.,-1.,0.));
#310=DIRECTION('ref_axis',(-0.979795897113271,0.,-0.2));
#311=DIRECTION('center_axis',(0.,1.,0.));
#312=DIRECTION('ref_axis',(-0.979795897113271,0.,-0.2));
#313=DIRECTION('',(0.,-1.,0.));
#314=DIRECTION('center_axis',(0.,-1.,0.));
#315=DIRECTION('ref_axis',(-0.979795897113271,0.,-0.2));
#316=DIRECTION('center_axis',(0.,-1.,0.));
#317=DIRECTION('ref_axis',(0.997351865592907,0.,-0.0727272727272725));
#318=DIRECTION('center_axis',(0.,1.,0.));
#319=DIRECTION('ref_axis',(0.997351865592907,0.,-0.0727272727272725));
#320=DIRECTION('center_axis',(0.,-1.,0.));
#321=DIRECTION('ref_axis',(0.997351865592907,0.,-0.0727272727272725));
#322=DIRECTION('',(0.,-1.,0.));
#323=DIRECTION('center_axis',(0.,-1.,0.));
#324=DIRECTION('ref_axis',(-0.979795897113271,0.,-0.2));
#325=DIRECTION('center_axis',(0.,-1.,0.));
#326=DIRECTION('ref_axis',(-0.979795897113271,0.,-0.2));
#327=DIRECTION('center_axis',(0.,1.,0.));
#328=DIRECTION('ref_axis',(-0.979795897113271,0.,-0.2));
#329=DIRECTION('center_axis',(0.,0.,1.));
#330=DIRECTION('ref_axis',(1.,0.,0.));
#331=DIRECTION('center_axis',(0.,0.,1.));
#332=DIRECTION('ref_axis',(1.,0.,0.));
#333=DIRECTION('center_axis',(0.,0.,1.));
#334=DIRECTION('ref_axis',(1.,0.,0.));
#335=DIRECTION('center_axis',(0.,0.,1.));
#336=DIRECTION('ref_axis',(1.,0.,0.));
#337=DIRECTION('center_axis',(0.,0.,1.));
#338=DIRECTION('ref_axis',(1.,0.,0.));
#339=DIRECTION('center_axis',(0.,0.,-1.));
#340=DIRECTION('ref_axis',(1.,0.,0.));
#341=DIRECTION('center_axis',(0.,0.,1.));
#342=DIRECTION('ref_axis',(1.,0.,0.));
#343=DIRECTION('center_axis',(0.,0.,-1.));
#344=DIRECTION('ref_axis',(1.,0.,0.));
#345=DIRECTION('center_axis',(0.,1.,0.));
#346=DIRECTION('ref_axis',(1.,0.,0.));
#347=DIRECTION('center_axis',(0.,1.,0.));
#348=DIRECTION('ref_axis',(1.,0.,0.));
#349=DIRECTION('center_axis',(0.,-1.,0.));
#350=DIRECTION('ref_axis',(1.,0.,0.));
#351=DIRECTION('center_axis',(1.,0.,0.));
#352=DIRECTION('ref_axis',(0.,1.,0.));
#353=DIRECTION('',(0.,-1.,0.));
#354=DIRECTION('',(0.,0.,1.));
#355=DIRECTION('',(0.,1.,0.));
#356=DIRECTION('',(0.,0.,1.));
#357=DIRECTION('center_axis',(0.,-1.,0.));
#358=DIRECTION('ref_axis',(1.,0.,0.));
#359=DIRECTION('',(-1.,0.,0.));
#360=DIRECTION('',(1.,0.,0.));
#361=DIRECTION('',(0.,0.,1.));
#362=DIRECTION('center_axis',(-1.,0.,0.));
#363=DIRECTION('ref_axis',(0.,-1.,0.));
#364=DIRECTION('',(0.,1.,0.));
#365=DIRECTION('',(0.,-1.,0.));
#366=DIRECTION('',(0.,0.,1.));
#367=DIRECTION('center_axis',(0.,1.,0.));
#368=DIRECTION('ref_axis',(-1.,0.,0.));
#369=DIRECTION('',(1.,0.,0.));
#370=DIRECTION('',(-1.,0.,0.));
#371=DIRECTION('center_axis',(0.,0.,1.));
#372=DIRECTION('ref_axis',(1.,0.,0.));
#373=DIRECTION('center_axis',(0.,0.,1.));
#374=DIRECTION('ref_axis',(1.,0.,0.));
#375=CARTESIAN_POINT('',(0.,0.,0.));
#376=CARTESIAN_POINT('Origin',(-27.5,8.,12.));
#377=CARTESIAN_POINT('',(30.4059375193943,-8.,23.82));
#378=CARTESIAN_POINT('',(31.4434952565408,-8.,7.70181818181818));
#379=CARTESIAN_POINT('Origin',(-27.5,-8.,12.));
#380=CARTESIAN_POINT('',(30.4059375193943,8.,23.82));
#381=CARTESIAN_POINT('',(30.4059375193943,8.,23.82));
#382=CARTESIAN_POINT('',(31.4434952565408,8.,7.70181818181818));
#383=CARTESIAN_POINT('Origin',(-27.5,8.,12.));
#384=CARTESIAN_POINT('',(31.4434952565408,8.,7.70181818181818));
#385=CARTESIAN_POINT('Origin',(26.3887743412299,8.,23.));
#386=CARTESIAN_POINT('',(22.3716111630655,-8.,22.18));
#387=CARTESIAN_POINT('Origin',(26.3887743412299,-8.,23.));
#388=CARTESIAN_POINT('',(22.3716111630655,8.,22.18));
#389=CARTESIAN_POINT('',(22.3716111630655,8.,22.18));
#390=CARTESIAN_POINT('Origin',(26.3887743412299,8.,23.));
#391=CARTESIAN_POINT('',(29.9678803748646,-2.22603205398266,25.));
#392=CARTESIAN_POINT('',(29.9678803748646,2.22603205398268,25.));
#393=CARTESIAN_POINT('Ctrl Pts',(29.9678803748646,-2.22603205398266,25.));
#394=CARTESIAN_POINT('Ctrl Pts',(30.0160811291101,-1.95826156040049,24.9137421948271));
#395=CARTESIAN_POINT('Ctrl Pts',(30.0566505631434,-1.67768408711567,24.8335270109614));
#396=CARTESIAN_POINT('Ctrl Pts',(30.1385386800864,-0.924487375114374,24.6622943090656));
#397=CARTESIAN_POINT('Ctrl Pts',(30.1624922963164,-0.444031674431214,24.6028265019827));
#398=CARTESIAN_POINT('Ctrl Pts',(30.1624922963164,9.99200722162641E-15,
24.6028265019827));
#399=CARTESIAN_POINT('Ctrl Pts',(30.1624922963164,0.392713210592582,24.6028265019827));
#400=CARTESIAN_POINT('Ctrl Pts',(30.143704273174,0.819269368242306,24.6490882204124));
#401=CARTESIAN_POINT('Ctrl Pts',(30.0707475501546,1.57866554623969,24.8052957608511));
#402=CARTESIAN_POINT('Ctrl Pts',(30.0238732208605,1.91497401673645,24.8997978335279));
#403=CARTESIAN_POINT('Ctrl Pts',(29.9678803748646,2.22603205398268,25.));
#404=CARTESIAN_POINT('Ctrl Pts',(29.9678803748646,-2.22603205398266,25.));
#405=CARTESIAN_POINT('Ctrl Pts',(29.7979831536388,-2.41438784035014,25.3040400847935));
#406=CARTESIAN_POINT('Ctrl Pts',(29.5725910020164,-2.61830066385957,25.6122078596393));
#407=CARTESIAN_POINT('Ctrl Pts',(29.0233108708311,-2.97205827511296,26.1659221671939));
#408=CARTESIAN_POINT('Ctrl Pts',(28.6974896331894,-3.12035201379777,26.4104772050343));
#409=CARTESIAN_POINT('Ctrl Pts',(28.0577225000696,-3.29087609556364,26.7603405402012));
#410=CARTESIAN_POINT('Ctrl Pts',(27.7066987941306,-3.33656299548169,26.900000319623));
#411=CARTESIAN_POINT('Ctrl Pts',(26.9871169291294,-3.30338129560065,27.0729489858939));
#412=CARTESIAN_POINT('Ctrl Pts',(26.6186596781588,-3.22346125800821,27.1064543098115));
#413=CARTESIAN_POINT('Ctrl Pts',(26.0975588057784,-3.02043247490419,27.0943363552384));
#414=CARTESIAN_POINT('Ctrl Pts',(25.8925888655445,-2.91773224842692,27.074447236551));
#415=CARTESIAN_POINT('Ctrl Pts',(25.5116763911708,-2.67273290716928,27.0097405787199));
#416=CARTESIAN_POINT('Ctrl Pts',(25.3356212971643,-2.53047369133793,26.9654356529719));
#417=CARTESIAN_POINT('Ctrl Pts',(24.8823917848496,-2.09161107990926,26.826620077163));
#418=CARTESIAN_POINT('Ctrl Pts',(24.6196507842363,-1.71798951081905,26.7041063246537));
#419=CARTESIAN_POINT('Ctrl Pts',(24.2666572125853,-0.890722640863448,26.5138051410438));
#420=CARTESIAN_POINT('Ctrl Pts',(24.1765,-0.43568705557809,26.4519331162605));
#421=CARTESIAN_POINT('Ctrl Pts',(24.1765,9.99200722162641E-15,26.4519331162605));
#422=CARTESIAN_POINT('Ctrl Pts',(24.1765,0.43568705557811,26.4519331162605));
#423=CARTESIAN_POINT('Ctrl Pts',(24.2666572125853,0.890722640863468,26.5138051410438));
#424=CARTESIAN_POINT('Ctrl Pts',(24.6196507842363,1.71798951081907,26.7041063246537));
#425=CARTESIAN_POINT('Ctrl Pts',(24.8823917848496,2.09161107990928,26.826620077163));
#426=CARTESIAN_POINT('Ctrl Pts',(25.3356212971643,2.53047369133795,26.9654356529719));
#427=CARTESIAN_POINT('Ctrl Pts',(25.5116763911708,2.6727329071693,27.0097405787199));
#428=CARTESIAN_POINT('Ctrl Pts',(25.8925888655445,2.91773224842694,27.074447236551));
#429=CARTESIAN_POINT('Ctrl Pts',(26.0975588057784,3.02043247490421,27.0943363552384));
#430=CARTESIAN_POINT('Ctrl Pts',(26.6186596781588,3.22346125800823,27.1064543098115));
#431=CARTESIAN_POINT('Ctrl Pts',(26.9871169291294,3.30338129560067,27.0729489858939));
#432=CARTESIAN_POINT('Ctrl Pts',(27.7066987941306,3.33656299548171,26.900000319623));
#433=CARTESIAN_POINT('Ctrl Pts',(28.0577225000696,3.29087609556366,26.7603405402012));
#434=CARTESIAN_POINT('Ctrl Pts',(28.6974896331894,3.12035201379779,26.4104772050343));
#435=CARTESIAN_POINT('Ctrl Pts',(29.0233108708311,2.97205827511298,26.1659221671939));
#436=CARTESIAN_POINT('Ctrl Pts',(29.5725910020164,2.61830066385959,25.6122078596393));
#437=CARTESIAN_POINT('Ctrl Pts',(29.7979831536388,2.41438784035016,25.3040400847935));
#438=CARTESIAN_POINT('Ctrl Pts',(29.9678803748646,2.22603205398268,25.));
#439=CARTESIAN_POINT('Origin',(27.3543526076099,8.,8.));
#440=CARTESIAN_POINT('',(23.265209958679,-8.,8.29818181818182));
#441=CARTESIAN_POINT('Origin',(27.3543526076099,-8.,8.));
#442=CARTESIAN_POINT('',(23.265209958679,8.,8.29818181818182));
#443=CARTESIAN_POINT('Origin',(27.3543526076099,8.,8.));
#444=CARTESIAN_POINT('',(23.265209958679,8.,8.29818181818182));
#445=CARTESIAN_POINT('Origin',(-27.5,8.,12.));
#446=CARTESIAN_POINT('Origin',(-27.5,-8.,12.));
#447=CARTESIAN_POINT('Origin',(-27.5,8.,12.));
#448=CARTESIAN_POINT('Origin',(27.5,1.03929509240886E-14,24.001519866331));
#449=CARTESIAN_POINT('Origin',(27.5,1.03929509240886E-14,25.));
#450=CARTESIAN_POINT('Origin',(-27.5,0.,24.001519866331));
#451=CARTESIAN_POINT('',(-24.1765,0.,25.));
#452=CARTESIAN_POINT('Origin',(-27.5,0.,25.));
#453=CARTESIAN_POINT('Origin',(-27.5,0.,35.));
#454=CARTESIAN_POINT('',(-24.1765,0.,45.));
#455=CARTESIAN_POINT('Origin',(-27.5,0.,45.));
#456=CARTESIAN_POINT('Origin',(27.5,1.03929509240886E-14,35.));
#457=CARTESIAN_POINT('',(30.8235,1.03929509240886E-14,45.));
#458=CARTESIAN_POINT('Origin',(27.5,1.03929509240886E-14,45.));
#459=CARTESIAN_POINT('Origin',(-27.5,-80.9156904038877,12.));
#460=CARTESIAN_POINT('',(-31.6,-8.,12.));
#461=CARTESIAN_POINT('Origin',(-27.5,-8.,12.));
#462=CARTESIAN_POINT('',(-23.4,8.,12.));
#463=CARTESIAN_POINT('Origin',(-27.5,8.00000000000001,12.));
#464=CARTESIAN_POINT('Origin',(37.5,-8.,0.));
#465=CARTESIAN_POINT('',(37.5,8.,0.));
#466=CARTESIAN_POINT('',(37.5,-8.,0.));
#467=CARTESIAN_POINT('',(37.5,8.,0.));
#468=CARTESIAN_POINT('',(37.5,8.,45.));
#469=CARTESIAN_POINT('',(37.5,8.,0.));
#470=CARTESIAN_POINT('',(37.5,-8.,45.));
#471=CARTESIAN_POINT('',(37.5,8.,45.));
#472=CARTESIAN_POINT('',(37.5,-8.,0.));
#473=CARTESIAN_POINT('Origin',(-37.5,-8.,0.));
#474=CARTESIAN_POINT('',(-37.5,-8.,0.));
#475=CARTESIAN_POINT('',(37.5,-8.,0.));
#476=CARTESIAN_POINT('',(-37.5,-8.,45.));
#477=CARTESIAN_POINT('',(37.5,-8.,45.));
#478=CARTESIAN_POINT('',(-37.5,-8.,0.));
#479=CARTESIAN_POINT('Origin',(-37.5,8.,0.));
#480=CARTESIAN_POINT('',(-37.5,8.,0.));
#481=CARTESIAN_POINT('',(-37.5,-8.,0.));
#482=CARTESIAN_POINT('',(-37.5,8.,45.));
#483=CARTESIAN_POINT('',(-37.5,-8.,45.));
#484=CARTESIAN_POINT('',(-37.5,8.,0.));
#485=CARTESIAN_POINT('Origin',(37.5,8.,0.));
#486=CARTESIAN_POINT('',(-37.5,8.,0.));
#487=CARTESIAN_POINT('',(-37.5,8.,45.));
#488=CARTESIAN_POINT('Origin',(0.,0.,0.));
#489=CARTESIAN_POINT('Origin',(0.,0.,45.));
#490=UNCERTAINTY_MEASURE_WITH_UNIT(LENGTH_MEASURE(0.01),#494,
'DISTANCE_ACCURACY_VALUE',
'Maximum model space distance between geometric entities at asserted c
onnectivities');
#491=UNCERTAINTY_MEASURE_WITH_UNIT(LENGTH_MEASURE(1.E-6),#494,
'DISTANCE_ACCURACY_VALUE',
'Maximum model space distance between geometric entities at asserted c
onnectivities');
#492=(
GEOMETRIC_REPRESENTATION_CONTEXT(3)
GLOBAL_UNCERTAINTY_ASSIGNED_CONTEXT((#490))
GLOBAL_UNIT_ASSIGNED_CONTEXT((#494,#497,#495))
REPRESENTATION_CONTEXT('','3D')
);
#493=(
GEOMETRIC_REPRESENTATION_CONTEXT(3)
GLOBAL_UNCERTAINTY_ASSIGNED_CONTEXT((#491))
GLOBAL_UNIT_ASSIGNED_CONTEXT((#494,#497,#495))
REPRESENTATION_CONTEXT('','3D')
);
#494=(
LENGTH_UNIT()
NAMED_UNIT(*)
SI_UNIT(.MILLI.,.METRE.)
);
#495=(
NAMED_UNIT(*)
SI_UNIT($,.STERADIAN.)
SOLID_ANGLE_UNIT()
);
#496=DIMENSIONAL_EXPONENTS(0.,0.,0.,0.,0.,0.,0.);
#497=(
CONVERSION_BASED_UNIT('degree',#499)
NAMED_UNIT(#496)
PLANE_ANGLE_UNIT()
);
#498=(
NAMED_UNIT(*)
PLANE_ANGLE_UNIT()
SI_UNIT($,.RADIAN.)
);
#499=PLANE_ANGLE_MEASURE_WITH_UNIT(PLANE_ANGLE_MEASURE(0.01745329252),#498);
#500=SHAPE_DEFINITION_REPRESENTATION(#501,#502);
#501=PRODUCT_DEFINITION_SHAPE('',$,#504);
#502=SHAPE_REPRESENTATION('',(#269),#492);
#503=PRODUCT_DEFINITION_CONTEXT('part definition',#508,'design');
#504=PRODUCT_DEFINITION('support_moteur1','support_moteur1',#505,#503);
#505=PRODUCT_DEFINITION_FORMATION('',$,#510);
#506=PRODUCT_RELATED_PRODUCT_CATEGORY('support_moteur1',
'support_moteur1',(#510));
#507=APPLICATION_PROTOCOL_DEFINITION('international standard',
'automotive_design',2009,#508);
#508=APPLICATION_CONTEXT(
'Core Data for Automotive Mechanical Design Process');
#509=PRODUCT_CONTEXT('part definition',#508,'mechanical');
#510=PRODUCT('support_moteur1','support_moteur1',$,(#509));
#511=PRESENTATION_STYLE_ASSIGNMENT((#512));
#512=SURFACE_STYLE_USAGE(.BOTH.,#513);
#513=SURFACE_SIDE_STYLE('',(#514));
#514=SURFACE_STYLE_FILL_AREA(#515);
#515=FILL_AREA_STYLE('',(#516));
#516=FILL_AREA_STYLE_COLOUR('',#517);
#517=COLOUR_RGB('',0.768627450980392,0.76078431372549,0.8);
ENDSEC;
END-ISO-10303-21;
