ISO-10303-21;
HEADER;
/* Generated by software containing ST-Developer
 * from STEP Tools, Inc. (www.steptools.com) 
 */

FILE_DESCRIPTION(
/* description */ (''),
/* implementation_level */ '2;1');

FILE_NAME(
/* name */ 'E:\\stephane_larhant\\step\\chariot_base_fixation_galet.st
p',
/* time_stamp */ '2021-03-29T18:12:19+02:00',
/* author */ ('Utilisateur'),
/* organization */ (''),
/* preprocessor_version */ 'ST-DEVELOPER v16.5',
/* originating_system */ 'Autodesk Inventor 2017',
/* authorisation */ '');

FILE_SCHEMA (('AUTOMOTIVE_DESIGN { 1 0 10303 214 3 1 1 }'));
ENDSEC;

DATA;
#10=MECHANICAL_DESIGN_GEOMETRIC_PRESENTATION_REPRESENTATION('',(#13),#437);
#11=SHAPE_REPRESENTATION_RELATIONSHIP('SRR','None',#446,#12);
#12=ADVANCED_BREP_SHAPE_REPRESENTATION('',(#14),#436);
#13=STYLED_ITEM('',(#455),#14);
#14=MANIFOLD_SOLID_BREP('Solide1',#240);
#15=LINE('',#399,#33);
#16=LINE('',#401,#34);
#17=LINE('',#403,#35);
#18=LINE('',#404,#36);
#19=LINE('',#408,#37);
#20=LINE('',#410,#38);
#21=LINE('',#412,#39);
#22=LINE('',#413,#40);
#23=LINE('',#416,#41);
#24=LINE('',#418,#42);
#25=LINE('',#419,#43);
#26=LINE('',#422,#44);
#27=LINE('',#424,#45);
#28=LINE('',#425,#46);
#29=LINE('',#427,#47);
#30=LINE('',#428,#48);
#31=LINE('',#430,#49);
#32=LINE('',#431,#50);
#33=VECTOR('',#302,10.);
#34=VECTOR('',#303,10.);
#35=VECTOR('',#304,10.);
#36=VECTOR('',#305,10.);
#37=VECTOR('',#308,10.);
#38=VECTOR('',#309,10.);
#39=VECTOR('',#310,10.);
#40=VECTOR('',#311,10.);
#41=VECTOR('',#314,10.);
#42=VECTOR('',#315,10.);
#43=VECTOR('',#316,10.);
#44=VECTOR('',#319,10.);
#45=VECTOR('',#320,10.);
#46=VECTOR('',#321,10.);
#47=VECTOR('',#324,10.);
#48=VECTOR('',#325,10.);
#49=VECTOR('',#328,10.);
#50=VECTOR('',#329,10.);
#51=PLANE('',#255);
#52=PLANE('',#262);
#53=PLANE('',#263);
#54=PLANE('',#264);
#55=PLANE('',#265);
#56=PLANE('',#266);
#57=PLANE('',#267);
#58=PLANE('',#268);
#59=PLANE('',#269);
#60=FACE_BOUND('',#89,.T.);
#61=FACE_BOUND('',#91,.T.);
#62=FACE_BOUND('',#93,.T.);
#63=FACE_BOUND('',#95,.T.);
#64=FACE_BOUND('',#97,.T.);
#65=FACE_BOUND('',#99,.T.);
#66=FACE_BOUND('',#101,.T.);
#67=FACE_BOUND('',#103,.T.);
#68=FACE_BOUND('',#105,.T.);
#69=CIRCLE('',#251,2.067);
#70=CIRCLE('',#253,2.067);
#71=CIRCLE('',#256,4.25);
#72=CIRCLE('',#257,2.6);
#73=CIRCLE('',#259,4.25);
#74=CIRCLE('',#261,2.6);
#75=FACE_OUTER_BOUND('',#88,.T.);
#76=FACE_OUTER_BOUND('',#90,.T.);
#77=FACE_OUTER_BOUND('',#92,.T.);
#78=FACE_OUTER_BOUND('',#94,.T.);
#79=FACE_OUTER_BOUND('',#96,.T.);
#80=FACE_OUTER_BOUND('',#98,.T.);
#81=FACE_OUTER_BOUND('',#100,.T.);
#82=FACE_OUTER_BOUND('',#102,.T.);
#83=FACE_OUTER_BOUND('',#104,.T.);
#84=FACE_OUTER_BOUND('',#106,.T.);
#85=FACE_OUTER_BOUND('',#107,.T.);
#86=FACE_OUTER_BOUND('',#108,.T.);
#87=FACE_OUTER_BOUND('',#109,.T.);
#88=EDGE_LOOP('',(#165,#166,#167));
#89=EDGE_LOOP('',(#168));
#90=EDGE_LOOP('',(#169));
#91=EDGE_LOOP('',(#170,#171,#172));
#92=EDGE_LOOP('',(#173));
#93=EDGE_LOOP('',(#174));
#94=EDGE_LOOP('',(#175));
#95=EDGE_LOOP('',(#176));
#96=EDGE_LOOP('',(#177,#178,#179));
#97=EDGE_LOOP('',(#180));
#98=EDGE_LOOP('',(#181,#182,#183,#184));
#99=EDGE_LOOP('',(#185,#186,#187));
#100=EDGE_LOOP('',(#188,#189,#190,#191));
#101=EDGE_LOOP('',(#192));
#102=EDGE_LOOP('',(#193,#194,#195,#196));
#103=EDGE_LOOP('',(#197));
#104=EDGE_LOOP('',(#198,#199,#200,#201));
#105=EDGE_LOOP('',(#202));
#106=EDGE_LOOP('',(#203,#204,#205,#206));
#107=EDGE_LOOP('',(#207,#208,#209,#210));
#108=EDGE_LOOP('',(#211,#212,#213,#214,#215,#216));
#109=EDGE_LOOP('',(#217,#218,#219,#220,#221,#222));
#110=ELLIPSE('',#249,2.92317943342519,2.067);
#111=ELLIPSE('',#250,2.92317943342519,2.067);
#112=ELLIPSE('',#254,2.92317943342519,2.067);
#113=B_SPLINE_CURVE_WITH_KNOTS('',3,(#338,#339,#340,#341,#342,#343,#344,
#345,#346,#347,#348,#349,#350,#351,#352,#353,#354,#355),.UNSPECIFIED.,.F.,
 .F.,(4,2,2,2,2,2,2,2,4),(0.,0.166967050593825,0.250450575890738,0.33393410118765,
0.374407277421012,0.414880453654373,0.475838744159779,0.536797034665185,
0.640981610573411),.UNSPECIFIED.);
#114=B_SPLINE_CURVE_WITH_KNOTS('',3,(#365,#366,#367,#368,#369,#370,#371,
#372,#373,#374,#375,#376,#377,#378,#379,#380,#381,#382,#383,#384),
 .UNSPECIFIED.,.F.,.F.,(4,2,2,2,2,2,2,2,2,4),(1.98114167122101,2.11889880264384,
2.25665593406668,2.30418392276407,2.32794791711276,2.35171191146146,2.37967483940803,
2.4076377673546,2.51401346590208,2.60270684737743),.UNSPECIFIED.);
#115=VERTEX_POINT('',#336);
#116=VERTEX_POINT('',#337);
#117=VERTEX_POINT('',#356);
#118=VERTEX_POINT('',#359);
#119=VERTEX_POINT('',#362);
#120=VERTEX_POINT('',#364);
#121=VERTEX_POINT('',#387);
#122=VERTEX_POINT('',#389);
#123=VERTEX_POINT('',#392);
#124=VERTEX_POINT('',#397);
#125=VERTEX_POINT('',#398);
#126=VERTEX_POINT('',#400);
#127=VERTEX_POINT('',#402);
#128=VERTEX_POINT('',#406);
#129=VERTEX_POINT('',#407);
#130=VERTEX_POINT('',#409);
#131=VERTEX_POINT('',#411);
#132=VERTEX_POINT('',#415);
#133=VERTEX_POINT('',#417);
#134=VERTEX_POINT('',#421);
#135=VERTEX_POINT('',#423);
#136=EDGE_CURVE('',#115,#116,#113,.T.);
#137=EDGE_CURVE('',#117,#115,#110,.T.);
#138=EDGE_CURVE('',#116,#117,#111,.T.);
#139=EDGE_CURVE('',#118,#118,#69,.T.);
#140=EDGE_CURVE('',#119,#119,#70,.T.);
#141=EDGE_CURVE('',#115,#120,#114,.T.);
#142=EDGE_CURVE('',#117,#120,#112,.T.);
#143=EDGE_CURVE('',#121,#121,#71,.T.);
#144=EDGE_CURVE('',#122,#122,#72,.T.);
#145=EDGE_CURVE('',#123,#123,#73,.T.);
#146=EDGE_CURVE('',#120,#116,#74,.T.);
#147=EDGE_CURVE('',#124,#125,#15,.T.);
#148=EDGE_CURVE('',#125,#126,#16,.T.);
#149=EDGE_CURVE('',#127,#126,#17,.T.);
#150=EDGE_CURVE('',#124,#127,#18,.T.);
#151=EDGE_CURVE('',#128,#129,#19,.T.);
#152=EDGE_CURVE('',#129,#130,#20,.T.);
#153=EDGE_CURVE('',#131,#130,#21,.T.);
#154=EDGE_CURVE('',#128,#131,#22,.T.);
#155=EDGE_CURVE('',#132,#128,#23,.T.);
#156=EDGE_CURVE('',#133,#131,#24,.T.);
#157=EDGE_CURVE('',#132,#133,#25,.T.);
#158=EDGE_CURVE('',#134,#132,#26,.T.);
#159=EDGE_CURVE('',#135,#133,#27,.T.);
#160=EDGE_CURVE('',#134,#135,#28,.T.);
#161=EDGE_CURVE('',#125,#134,#29,.T.);
#162=EDGE_CURVE('',#126,#135,#30,.T.);
#163=EDGE_CURVE('',#129,#124,#31,.T.);
#164=EDGE_CURVE('',#130,#127,#32,.T.);
#165=ORIENTED_EDGE('',*,*,#136,.F.);
#166=ORIENTED_EDGE('',*,*,#137,.F.);
#167=ORIENTED_EDGE('',*,*,#138,.F.);
#168=ORIENTED_EDGE('',*,*,#139,.F.);
#169=ORIENTED_EDGE('',*,*,#140,.F.);
#170=ORIENTED_EDGE('',*,*,#137,.T.);
#171=ORIENTED_EDGE('',*,*,#141,.T.);
#172=ORIENTED_EDGE('',*,*,#142,.F.);
#173=ORIENTED_EDGE('',*,*,#143,.T.);
#174=ORIENTED_EDGE('',*,*,#144,.F.);
#175=ORIENTED_EDGE('',*,*,#145,.F.);
#176=ORIENTED_EDGE('',*,*,#143,.F.);
#177=ORIENTED_EDGE('',*,*,#136,.T.);
#178=ORIENTED_EDGE('',*,*,#146,.F.);
#179=ORIENTED_EDGE('',*,*,#141,.F.);
#180=ORIENTED_EDGE('',*,*,#144,.T.);
#181=ORIENTED_EDGE('',*,*,#147,.T.);
#182=ORIENTED_EDGE('',*,*,#148,.T.);
#183=ORIENTED_EDGE('',*,*,#149,.F.);
#184=ORIENTED_EDGE('',*,*,#150,.F.);
#185=ORIENTED_EDGE('',*,*,#138,.T.);
#186=ORIENTED_EDGE('',*,*,#142,.T.);
#187=ORIENTED_EDGE('',*,*,#146,.T.);
#188=ORIENTED_EDGE('',*,*,#151,.T.);
#189=ORIENTED_EDGE('',*,*,#152,.T.);
#190=ORIENTED_EDGE('',*,*,#153,.F.);
#191=ORIENTED_EDGE('',*,*,#154,.F.);
#192=ORIENTED_EDGE('',*,*,#140,.T.);
#193=ORIENTED_EDGE('',*,*,#155,.T.);
#194=ORIENTED_EDGE('',*,*,#154,.T.);
#195=ORIENTED_EDGE('',*,*,#156,.F.);
#196=ORIENTED_EDGE('',*,*,#157,.F.);
#197=ORIENTED_EDGE('',*,*,#145,.T.);
#198=ORIENTED_EDGE('',*,*,#158,.T.);
#199=ORIENTED_EDGE('',*,*,#157,.T.);
#200=ORIENTED_EDGE('',*,*,#159,.F.);
#201=ORIENTED_EDGE('',*,*,#160,.F.);
#202=ORIENTED_EDGE('',*,*,#139,.T.);
#203=ORIENTED_EDGE('',*,*,#161,.T.);
#204=ORIENTED_EDGE('',*,*,#160,.T.);
#205=ORIENTED_EDGE('',*,*,#162,.F.);
#206=ORIENTED_EDGE('',*,*,#148,.F.);
#207=ORIENTED_EDGE('',*,*,#163,.T.);
#208=ORIENTED_EDGE('',*,*,#150,.T.);
#209=ORIENTED_EDGE('',*,*,#164,.F.);
#210=ORIENTED_EDGE('',*,*,#152,.F.);
#211=ORIENTED_EDGE('',*,*,#164,.T.);
#212=ORIENTED_EDGE('',*,*,#149,.T.);
#213=ORIENTED_EDGE('',*,*,#162,.T.);
#214=ORIENTED_EDGE('',*,*,#159,.T.);
#215=ORIENTED_EDGE('',*,*,#156,.T.);
#216=ORIENTED_EDGE('',*,*,#153,.T.);
#217=ORIENTED_EDGE('',*,*,#163,.F.);
#218=ORIENTED_EDGE('',*,*,#151,.F.);
#219=ORIENTED_EDGE('',*,*,#155,.F.);
#220=ORIENTED_EDGE('',*,*,#158,.F.);
#221=ORIENTED_EDGE('',*,*,#161,.F.);
#222=ORIENTED_EDGE('',*,*,#147,.F.);
#223=CYLINDRICAL_SURFACE('',#248,2.067);
#224=CYLINDRICAL_SURFACE('',#252,2.067);
#225=CYLINDRICAL_SURFACE('',#258,4.25);
#226=CYLINDRICAL_SURFACE('',#260,2.6);
#227=ADVANCED_FACE('',(#75,#60),#223,.F.);
#228=ADVANCED_FACE('',(#76,#61),#224,.F.);
#229=ADVANCED_FACE('',(#77,#62),#51,.T.);
#230=ADVANCED_FACE('',(#78,#63),#225,.F.);
#231=ADVANCED_FACE('',(#79,#64),#226,.F.);
#232=ADVANCED_FACE('',(#80,#65),#52,.T.);
#233=ADVANCED_FACE('',(#81,#66),#53,.T.);
#234=ADVANCED_FACE('',(#82,#67),#54,.T.);
#235=ADVANCED_FACE('',(#83,#68),#55,.T.);
#236=ADVANCED_FACE('',(#84),#56,.T.);
#237=ADVANCED_FACE('',(#85),#57,.T.);
#238=ADVANCED_FACE('',(#86),#58,.T.);
#239=ADVANCED_FACE('',(#87),#59,.F.);
#240=CLOSED_SHELL('',(#227,#228,#229,#230,#231,#232,#233,#234,#235,#236,
#237,#238,#239));
#241=DATE_TIME_ROLE('creation_date');
#242=APPLIED_DATE_AND_TIME_ASSIGNMENT(#243,#241,(#448));
#243=DATE_AND_TIME(#244,#245);
#244=CALENDAR_DATE(2021,8,2);
#245=LOCAL_TIME(16,34,5.,#246);
#246=COORDINATED_UNIVERSAL_TIME_OFFSET(0,0,.BEHIND.);
#247=AXIS2_PLACEMENT_3D('placement',#334,#270,#271);
#248=AXIS2_PLACEMENT_3D('',#335,#272,#273);
#249=AXIS2_PLACEMENT_3D('',#357,#274,#275);
#250=AXIS2_PLACEMENT_3D('',#358,#276,#277);
#251=AXIS2_PLACEMENT_3D('',#360,#278,#279);
#252=AXIS2_PLACEMENT_3D('',#361,#280,#281);
#253=AXIS2_PLACEMENT_3D('',#363,#282,#283);
#254=AXIS2_PLACEMENT_3D('',#385,#284,#285);
#255=AXIS2_PLACEMENT_3D('',#386,#286,#287);
#256=AXIS2_PLACEMENT_3D('',#388,#288,#289);
#257=AXIS2_PLACEMENT_3D('',#390,#290,#291);
#258=AXIS2_PLACEMENT_3D('',#391,#292,#293);
#259=AXIS2_PLACEMENT_3D('',#393,#294,#295);
#260=AXIS2_PLACEMENT_3D('',#394,#296,#297);
#261=AXIS2_PLACEMENT_3D('',#395,#298,#299);
#262=AXIS2_PLACEMENT_3D('',#396,#300,#301);
#263=AXIS2_PLACEMENT_3D('',#405,#306,#307);
#264=AXIS2_PLACEMENT_3D('',#414,#312,#313);
#265=AXIS2_PLACEMENT_3D('',#420,#317,#318);
#266=AXIS2_PLACEMENT_3D('',#426,#322,#323);
#267=AXIS2_PLACEMENT_3D('',#429,#326,#327);
#268=AXIS2_PLACEMENT_3D('',#432,#330,#331);
#269=AXIS2_PLACEMENT_3D('',#433,#332,#333);
#270=DIRECTION('axis',(0.,0.,1.));
#271=DIRECTION('refdir',(1.,0.,0.));
#272=DIRECTION('center_axis',(-0.707106781186547,-0.707106781186548,0.));
#273=DIRECTION('ref_axis',(0.707106781186548,-0.707106781186547,0.));
#274=DIRECTION('center_axis',(1.,5.69699731017335E-16,0.));
#275=DIRECTION('ref_axis',(5.69699731017335E-16,-1.,0.));
#276=DIRECTION('center_axis',(0.,1.,0.));
#277=DIRECTION('ref_axis',(1.,0.,0.));
#278=DIRECTION('center_axis',(-0.707106781186547,-0.707106781186548,0.));
#279=DIRECTION('ref_axis',(0.707106781186548,-0.707106781186547,0.));
#280=DIRECTION('center_axis',(-0.707106781186547,0.707106781186548,0.));
#281=DIRECTION('ref_axis',(-0.707106781186548,-0.707106781186547,0.));
#282=DIRECTION('center_axis',(0.707106781186547,-0.707106781186548,0.));
#283=DIRECTION('ref_axis',(-0.707106781186548,-0.707106781186547,0.));
#284=DIRECTION('center_axis',(0.,1.,0.));
#285=DIRECTION('ref_axis',(-1.,0.,0.));
#286=DIRECTION('center_axis',(0.,1.,0.));
#287=DIRECTION('ref_axis',(1.,0.,0.));
#288=DIRECTION('center_axis',(0.,1.,0.));
#289=DIRECTION('ref_axis',(1.,0.,0.));
#290=DIRECTION('center_axis',(0.,1.,0.));
#291=DIRECTION('ref_axis',(1.,0.,0.));
#292=DIRECTION('center_axis',(0.,1.,0.));
#293=DIRECTION('ref_axis',(1.,0.,0.));
#294=DIRECTION('center_axis',(0.,-1.,0.));
#295=DIRECTION('ref_axis',(1.,0.,0.));
#296=DIRECTION('center_axis',(0.,1.,0.));
#297=DIRECTION('ref_axis',(1.,0.,0.));
#298=DIRECTION('center_axis',(0.,1.,0.));
#299=DIRECTION('ref_axis',(1.,0.,0.));
#300=DIRECTION('center_axis',(0.,-1.,0.));
#301=DIRECTION('ref_axis',(1.,0.,0.));
#302=DIRECTION('',(1.,0.,0.));
#303=DIRECTION('',(0.,0.,1.));
#304=DIRECTION('',(1.,0.,0.));
#305=DIRECTION('',(0.,0.,1.));
#306=DIRECTION('center_axis',(-0.707106781186547,0.707106781186548,0.));
#307=DIRECTION('ref_axis',(-0.707106781186548,-0.707106781186547,0.));
#308=DIRECTION('',(-0.707106781186548,-0.707106781186547,0.));
#309=DIRECTION('',(0.,0.,1.));
#310=DIRECTION('',(-0.707106781186548,-0.707106781186547,0.));
#311=DIRECTION('',(0.,0.,1.));
#312=DIRECTION('center_axis',(0.,1.,0.));
#313=DIRECTION('ref_axis',(-1.,0.,0.));
#314=DIRECTION('',(-1.,0.,0.));
#315=DIRECTION('',(-1.,0.,0.));
#316=DIRECTION('',(0.,0.,1.));
#317=DIRECTION('center_axis',(0.707106781186547,0.707106781186548,0.));
#318=DIRECTION('ref_axis',(-0.707106781186548,0.707106781186547,0.));
#319=DIRECTION('',(-0.707106781186548,0.707106781186547,0.));
#320=DIRECTION('',(-0.707106781186548,0.707106781186547,0.));
#321=DIRECTION('',(0.,0.,1.));
#322=DIRECTION('center_axis',(1.,-3.33066907387547E-15,0.));
#323=DIRECTION('ref_axis',(3.37507799486048E-15,1.,0.));
#324=DIRECTION('',(3.33066907387547E-15,1.,0.));
#325=DIRECTION('',(3.33066907387547E-15,1.,0.));
#326=DIRECTION('center_axis',(-1.,-3.33066907387547E-15,0.));
#327=DIRECTION('ref_axis',(3.37507799486048E-15,-1.,0.));
#328=DIRECTION('',(3.33066907387547E-15,-1.,0.));
#329=DIRECTION('',(3.33066907387547E-15,-1.,0.));
#330=DIRECTION('center_axis',(0.,0.,1.));
#331=DIRECTION('ref_axis',(1.,0.,0.));
#332=DIRECTION('center_axis',(0.,0.,1.));
#333=DIRECTION('ref_axis',(1.,0.,0.));
#334=CARTESIAN_POINT('',(0.,0.,0.));
#335=CARTESIAN_POINT('Origin',(4.86862915010153,0.0904545570494897,10.5));
#336=CARTESIAN_POINT('',(-1.52655665885959E-15,-1.98085837924997,9.9));
#337=CARTESIAN_POINT('',(2.59923361951647,-2.,12.5631236182049));
#338=CARTESIAN_POINT('Ctrl Pts',(1.04083408558608E-16,-1.98085837924997,
9.9));
#339=CARTESIAN_POINT('Ctrl Pts',(0.39354511236537,-1.5873132668846,9.9));
#340=CARTESIAN_POINT('Ctrl Pts',(0.789089467686927,-1.14478971401983,9.9902283197475));
#341=CARTESIAN_POINT('Ctrl Pts',(1.33025274249931,-0.542199688067683,10.257018807945));
#342=CARTESIAN_POINT('Ctrl Pts',(1.5012156340266,-0.353544352688969,10.3665824292546));
#343=CARTESIAN_POINT('Ctrl Pts',(1.82761007727921,-0.0276247711871998,10.6385559480129));
#344=CARTESIAN_POINT('Ctrl Pts',(1.98202289083172,0.114792076533715,10.7959654652142));
#345=CARTESIAN_POINT('Ctrl Pts',(2.20957423763155,0.222789953618219,11.1235047713304));
#346=CARTESIAN_POINT('Ctrl Pts',(2.2837965331586,0.236909620786753,11.2495157432997));
#347=CARTESIAN_POINT('Ctrl Pts',(2.40442402963054,0.191369695736592,11.5009091957963));
#348=CARTESIAN_POINT('Ctrl Pts',(2.45119435499403,0.131343515280021,11.6260497447886));
#349=CARTESIAN_POINT('Ctrl Pts',(2.53284100143188,-0.063718145848654,11.8898672755485));
#350=CARTESIAN_POINT('Ctrl Pts',(2.55602183576711,-0.215576729322266,12.0123382467874));
#351=CARTESIAN_POINT('Ctrl Pts',(2.58705846308302,-0.553654688356161,12.2203775557835));
#352=CARTESIAN_POINT('Ctrl Pts',(2.59348634815885,-0.741054384636552,12.3042331674532));
#353=CARTESIAN_POINT('Ctrl Pts',(2.60247532527077,-1.27815869246314,12.485470165157));
#354=CARTESIAN_POINT('Ctrl Pts',(2.59960561095911,-1.64641895145089,12.5478061714018));
#355=CARTESIAN_POINT('Ctrl Pts',(2.59923361951647,-2.,12.5631236182049));
#356=CARTESIAN_POINT('',(3.63888395547572E-16,-2.,9.85706768220905));
#357=CARTESIAN_POINT('Origin',(1.11022302462516E-15,-4.77817459305205,10.5));
#358=CARTESIAN_POINT('Origin',(2.77817459305205,-2.,10.5));
#359=CARTESIAN_POINT('',(11.3506770132386,3.64932298676139,10.5));
#360=CARTESIAN_POINT('Origin',(9.88908729652602,5.11091270347398,10.5));
#361=CARTESIAN_POINT('Origin',(-4.86862915010153,0.0904545570494897,10.5));
#362=CARTESIAN_POINT('',(-11.3506770132386,3.64932298676139,10.5));
#363=CARTESIAN_POINT('Origin',(-9.88908729652602,5.11091270347398,10.5));
#364=CARTESIAN_POINT('',(-2.59923361951648,-2.,12.5631236182049));
#365=CARTESIAN_POINT('Ctrl Pts',(-2.63677968348475E-15,-1.98085837924997,
9.9));
#366=CARTESIAN_POINT('Ctrl Pts',(-0.324696672619647,-1.65616170663032,9.9));
#367=CARTESIAN_POINT('Ctrl Pts',(-0.660015862769851,-1.28963672266422,9.96217537369672));
#368=CARTESIAN_POINT('Ctrl Pts',(-1.29187121920798,-0.584565181804468,10.2180594017932));
#369=CARTESIAN_POINT('Ctrl Pts',(-1.58801916517017,-0.242953235838004,10.4042151505021));
#370=CARTESIAN_POINT('Ctrl Pts',(-1.95654715061011,0.0774221029914999,10.7823653954451));
#371=CARTESIAN_POINT('Ctrl Pts',(-2.05738060552231,0.153140239175277,10.9021481924049));
#372=CARTESIAN_POINT('Ctrl Pts',(-2.19350007299648,0.213577327369493,11.1017711112585));
#373=CARTESIAN_POINT('Ctrl Pts',(-2.23653855649198,0.225003109304532,11.1716725915738));
#374=CARTESIAN_POINT('Ctrl Pts',(-2.31486747995069,0.226137134760295,11.3134311697106));
#375=CARTESIAN_POINT('Ctrl Pts',(-2.35016043832277,0.215840008242177,11.3852869188747));
#376=CARTESIAN_POINT('Ctrl Pts',(-2.41699684424721,0.170420079337442,11.5376012040173));
#377=CARTESIAN_POINT('Ctrl Pts',(-2.44939440232992,0.128439702102117,11.623919015406));
#378=CARTESIAN_POINT('Ctrl Pts',(-2.50081862061411,0.0178748655372088,11.7837898593673));
#379=CARTESIAN_POINT('Ctrl Pts',(-2.5201597361,-0.0503409063090345,11.8574963199532));
#380=CARTESIAN_POINT('Ctrl Pts',(-2.58816173633613,-0.3787150698872,12.1542569580205));
#381=CARTESIAN_POINT('Ctrl Pts',(-2.5951852765832,-0.718283862121808,12.3102960608122));
#382=CARTESIAN_POINT('Ctrl Pts',(-2.6014650399696,-1.38026818441467,12.5022755103974));
#383=CARTESIAN_POINT('Ctrl Pts',(-2.59955201977666,-1.69735782883263,12.550012889063));
#384=CARTESIAN_POINT('Ctrl Pts',(-2.59923361951648,-2.,12.5631236182049));
#385=CARTESIAN_POINT('Origin',(-2.77817459305205,-2.,10.5));
#386=CARTESIAN_POINT('Origin',(-1.11022302462516E-15,3.99999999999999,12.5));
#387=CARTESIAN_POINT('',(4.25,3.99999999999999,12.5));
#388=CARTESIAN_POINT('Origin',(-1.11022302462516E-15,3.99999999999999,12.5));
#389=CARTESIAN_POINT('',(-2.6,3.99999999999999,12.5));
#390=CARTESIAN_POINT('Origin',(-1.11022302462516E-15,3.99999999999999,12.5));
#391=CARTESIAN_POINT('Origin',(-1.11022302462516E-15,6.49999999999999,12.5));
#392=CARTESIAN_POINT('',(4.25,8.99999999999999,12.5));
#393=CARTESIAN_POINT('Origin',(-1.11022302462516E-15,8.99999999999999,12.5));
#394=CARTESIAN_POINT('Origin',(-1.11022302462516E-15,-31.5709255502016,
12.5));
#395=CARTESIAN_POINT('Origin',(-1.11022302462516E-15,-2.,12.5));
#396=CARTESIAN_POINT('Origin',(-15.,-2.,0.));
#397=CARTESIAN_POINT('',(-15.,-2.,0.));
#398=CARTESIAN_POINT('',(15.,-2.,0.));
#399=CARTESIAN_POINT('',(-15.,-2.,0.));
#400=CARTESIAN_POINT('',(15.,-2.,25.));
#401=CARTESIAN_POINT('',(15.,-2.,0.));
#402=CARTESIAN_POINT('',(-15.,-2.,25.));
#403=CARTESIAN_POINT('',(-15.,-2.,25.));
#404=CARTESIAN_POINT('',(-15.,-2.,0.));
#405=CARTESIAN_POINT('Origin',(-6.,8.99999999999999,0.));
#406=CARTESIAN_POINT('',(-6.,8.99999999999999,0.));
#407=CARTESIAN_POINT('',(-15.,0.,0.));
#408=CARTESIAN_POINT('',(-6.,8.99999999999999,0.));
#409=CARTESIAN_POINT('',(-15.,0.,25.));
#410=CARTESIAN_POINT('',(-15.,0.,0.));
#411=CARTESIAN_POINT('',(-6.,8.99999999999999,25.));
#412=CARTESIAN_POINT('',(-6.,8.99999999999999,25.));
#413=CARTESIAN_POINT('',(-6.,8.99999999999999,0.));
#414=CARTESIAN_POINT('Origin',(6.,8.99999999999999,0.));
#415=CARTESIAN_POINT('',(6.,8.99999999999999,0.));
#416=CARTESIAN_POINT('',(6.,8.99999999999999,0.));
#417=CARTESIAN_POINT('',(6.,8.99999999999999,25.));
#418=CARTESIAN_POINT('',(6.,8.99999999999999,25.));
#419=CARTESIAN_POINT('',(6.,8.99999999999999,0.));
#420=CARTESIAN_POINT('Origin',(15.,0.,0.));
#421=CARTESIAN_POINT('',(15.,0.,0.));
#422=CARTESIAN_POINT('',(15.,0.,0.));
#423=CARTESIAN_POINT('',(15.,0.,25.));
#424=CARTESIAN_POINT('',(15.,0.,25.));
#425=CARTESIAN_POINT('',(15.,0.,0.));
#426=CARTESIAN_POINT('Origin',(15.,-2.,0.));
#427=CARTESIAN_POINT('',(15.,-2.,0.));
#428=CARTESIAN_POINT('',(15.,-2.,25.));
#429=CARTESIAN_POINT('Origin',(-15.,0.,0.));
#430=CARTESIAN_POINT('',(-15.,0.,0.));
#431=CARTESIAN_POINT('',(-15.,0.,25.));
#432=CARTESIAN_POINT('Origin',(0.,2.21887097547865,25.));
#433=CARTESIAN_POINT('Origin',(-6.99173548664997E-16,2.21887097547865,0.));
#434=UNCERTAINTY_MEASURE_WITH_UNIT(LENGTH_MEASURE(0.01),#438,
'DISTANCE_ACCURACY_VALUE',
'Maximum model space distance between geometric entities at asserted c
onnectivities');
#435=UNCERTAINTY_MEASURE_WITH_UNIT(LENGTH_MEASURE(1.E-6),#438,
'DISTANCE_ACCURACY_VALUE',
'Maximum model space distance between geometric entities at asserted c
onnectivities');
#436=(
GEOMETRIC_REPRESENTATION_CONTEXT(3)
GLOBAL_UNCERTAINTY_ASSIGNED_CONTEXT((#434))
GLOBAL_UNIT_ASSIGNED_CONTEXT((#438,#441,#439))
REPRESENTATION_CONTEXT('','3D')
);
#437=(
GEOMETRIC_REPRESENTATION_CONTEXT(3)
GLOBAL_UNCERTAINTY_ASSIGNED_CONTEXT((#435))
GLOBAL_UNIT_ASSIGNED_CONTEXT((#438,#441,#439))
REPRESENTATION_CONTEXT('','3D')
);
#438=(
LENGTH_UNIT()
NAMED_UNIT(*)
SI_UNIT(.MILLI.,.METRE.)
);
#439=(
NAMED_UNIT(*)
SI_UNIT($,.STERADIAN.)
SOLID_ANGLE_UNIT()
);
#440=DIMENSIONAL_EXPONENTS(0.,0.,0.,0.,0.,0.,0.);
#441=(
CONVERSION_BASED_UNIT('degree',#443)
NAMED_UNIT(#440)
PLANE_ANGLE_UNIT()
);
#442=(
NAMED_UNIT(*)
PLANE_ANGLE_UNIT()
SI_UNIT($,.RADIAN.)
);
#443=PLANE_ANGLE_MEASURE_WITH_UNIT(PLANE_ANGLE_MEASURE(0.01745329252),#442);
#444=SHAPE_DEFINITION_REPRESENTATION(#445,#446);
#445=PRODUCT_DEFINITION_SHAPE('',$,#448);
#446=SHAPE_REPRESENTATION('',(#247),#436);
#447=PRODUCT_DEFINITION_CONTEXT('part definition',#452,'design');
#448=PRODUCT_DEFINITION('chariot_base_fixation_galet',
'chariot_base_fixation_galet',#449,#447);
#449=PRODUCT_DEFINITION_FORMATION('',$,#454);
#450=PRODUCT_RELATED_PRODUCT_CATEGORY('chariot_base_fixation_galet',
'chariot_base_fixation_galet',(#454));
#451=APPLICATION_PROTOCOL_DEFINITION('international standard',
'automotive_design',2009,#452);
#452=APPLICATION_CONTEXT(
'Core Data for Automotive Mechanical Design Process');
#453=PRODUCT_CONTEXT('part definition',#452,'mechanical');
#454=PRODUCT('chariot_base_fixation_galet',
'chariot_base_fixation_galet',$,(#453));
#455=PRESENTATION_STYLE_ASSIGNMENT((#456));
#456=SURFACE_STYLE_USAGE(.BOTH.,#457);
#457=SURFACE_SIDE_STYLE('',(#458));
#458=SURFACE_STYLE_FILL_AREA(#459);
#459=FILL_AREA_STYLE('',(#460));
#460=FILL_AREA_STYLE_COLOUR('',#461);
#461=COLOUR_RGB('',0.749019607843137,0.749019607843137,0.749019607843137);
ENDSEC;
END-ISO-10303-21;
