ISO-10303-21;
HEADER;
FILE_DESCRIPTION (( 'STEP AP214' ),
    '1' );
FILE_NAME ('Fusée av gauche.STEP',
    '2021-04-16T19:49:53',
    ( '' ),
    ( '' ),
    'SwSTEP 2.0',
    'SolidWorks 2015',
    '' );
FILE_SCHEMA (( 'AUTOMOTIVE_DESIGN' ));
ENDSEC;

DATA;
#1 = DIRECTION ( 'NONE',  ( -1.000000000000000000, -0.0000000000000000000, -0.0000000000000000000 ) ) ;
#2 = VECTOR ( 'NONE', #346, 1000.000000000000000 ) ;
#3 = EDGE_CURVE ( 'NONE', #116, #371, #24, .T. ) ;
#4 = CARTESIAN_POINT ( 'NONE',  ( -1.916532555079286800E-015, 0.0000000000000000000, 0.0000000000000000000 ) ) ;
#5 = EDGE_CURVE ( 'NONE', #175, #288, #226, .T. ) ;
#6 = AXIS2_PLACEMENT_3D ( 'NONE', #43, #362, #16 ) ;
#7 = CIRCLE ( 'NONE', #90, 65.00000000000000000 ) ;
#8 = AXIS2_PLACEMENT_3D ( 'NONE', #212, #32, #33 ) ;
#9 = CARTESIAN_POINT ( 'NONE',  ( 59.70000000000000300, 0.0000000000000000000, 0.0000000000000000000 ) ) ;
#10 = PRODUCT_DEFINITION_SHAPE ( 'NONE', 'NONE',  #120 ) ;
#11 = COLOUR_RGB ( '',0.6470588235294118000, 0.6196078431372549200, 0.5882352941176470800 ) ;
#12 = FILL_AREA_STYLE ('',( #189 ) ) ;
#13 = DIRECTION ( 'NONE',  ( -1.000000000000000000, -0.0000000000000000000, -0.0000000000000000000 ) ) ;
#14 = ORIENTED_EDGE ( 'NONE', *, *, #139, .T. ) ;
#15 = PLANE ( 'NONE',  #218 ) ;
#16 = DIRECTION ( 'NONE',  ( 0.0000000000000000000, 0.0000000000000000000, 1.000000000000000000 ) ) ;
#17 = ADVANCED_FACE ( 'NONE', ( #141 ), #101, .F. ) ;
#18 = DIRECTION ( 'NONE',  ( 0.0000000000000000000, 0.0000000000000000000, 1.000000000000000000 ) ) ;
#19 = ORIENTED_EDGE ( 'NONE', *, *, #45, .F. ) ;
#20 = CIRCLE ( 'NONE', #168, 65.00000000000000000 ) ;
#21 = ORIENTED_EDGE ( 'NONE', *, *, #306, .T. ) ;
#22 = DIRECTION ( 'NONE',  ( 0.0000000000000000000, 0.0000000000000000000, 1.000000000000000000 ) ) ;
#23 = CIRCLE ( 'NONE', #6, 60.00000000000000000 ) ;
#24 = CIRCLE ( 'NONE', #195, 60.00000000000000000 ) ;
#25 = ORIENTED_EDGE ( 'NONE', *, *, #271, .F. ) ;
#26 = EDGE_CURVE ( 'NONE', #230, #313, #80, .T. ) ;
#27 = DIRECTION ( 'NONE',  ( 0.2381466967146034500, 0.9712291958358351100, 0.0000000000000000000 ) ) ;
#28 = ORIENTED_EDGE ( 'NONE', *, *, #178, .T. ) ;
#29 = EDGE_CURVE ( 'NONE', #300, #175, #247, .T. ) ;
#30 = STYLED_ITEM ( 'NONE', ( #99 ), #316 ) ;
#31 = AXIS2_PLACEMENT_3D ( 'NONE', #321, #257, #238 ) ;
#32 = DIRECTION ( 'NONE',  ( -1.000000000000000000, -0.0000000000000000000, -0.0000000000000000000 ) ) ;
#33 = DIRECTION ( 'NONE',  ( 0.0000000000000000000, 0.0000000000000000000, 1.000000000000000000 ) ) ;
#34 = VECTOR ( 'NONE', #208, 1000.000000000000000 ) ;
#35 = CARTESIAN_POINT ( 'NONE',  ( 59.70000000000000300, 0.0000000000000000000, 65.00000000000000000 ) ) ;
#36 = AXIS2_PLACEMENT_3D ( 'NONE', #323, #267, #121 ) ;
#37 = CARTESIAN_POINT ( 'NONE',  ( 19.30000000000000400, 65.00000000000000000, 0.0000000000000000000 ) ) ;
#38 =( LENGTH_UNIT ( ) NAMED_UNIT ( * ) SI_UNIT ( .MILLI., .METRE. ) );
#39 = DIRECTION ( 'NONE',  ( 0.0000000000000000000, 0.0000000000000000000, 1.000000000000000000 ) ) ;
#40 = CARTESIAN_POINT ( 'NONE',  ( 59.70000000000000300, 60.00000000000000000, 0.0000000000000000000 ) ) ;
#41 = SURFACE_STYLE_USAGE ( .BOTH. , #228 ) ;
#42 = EDGE_LOOP ( 'NONE', ( #283, #352, #87, #131 ) ) ;
#43 = CARTESIAN_POINT ( 'NONE',  ( 19.30000000000000400, 0.0000000000000000000, 0.0000000000000000000 ) ) ;
#44 = PRODUCT_CONTEXT ( 'NONE', #342, 'mechanical' ) ;
#45 = EDGE_CURVE ( 'NONE', #237, #289, #123, .T. ) ;
#46 = SURFACE_STYLE_FILL_AREA ( #104 ) ;
#47 = CARTESIAN_POINT ( 'NONE',  ( 0.0000000000000000000, 0.0000000000000000000, 0.0000000000000000000 ) ) ;
#48 = AXIS2_PLACEMENT_3D ( 'NONE', #83, #372, #27 ) ;
#49 = ORIENTED_EDGE ( 'NONE', *, *, #26, .F. ) ;
#50 = CARTESIAN_POINT ( 'NONE',  ( 19.30000000000000100, 0.0000000000000000000, 65.00000000000000000 ) ) ;
#51 = FACE_OUTER_BOUND ( 'NONE', #82, .T. ) ;
#52 = ORIENTED_EDGE ( 'NONE', *, *, #345, .T. ) ;
#53 = DIRECTION ( 'NONE',  ( 0.0000000000000000000, 0.0000000000000000000, 1.000000000000000000 ) ) ;
#54 = AXIS2_PLACEMENT_3D ( 'NONE', #336, #97, #74 ) ;
#55 = UNCERTAINTY_MEASURE_WITH_UNIT (LENGTH_MEASURE( 1.000000000000000100E-005 ), #138, 'distance_accuracy_value', 'NONE');
#56 = CIRCLE ( 'NONE', #272, 70.00000000000000000 ) ;
#57 = ORIENTED_EDGE ( 'NONE', *, *, #5, .T. ) ;
#58 = ORIENTED_EDGE ( 'NONE', *, *, #106, .T. ) ;
#59 = CARTESIAN_POINT ( 'NONE',  ( 97.83590645596696300, 7.960204194457797300E-015, -65.00000000000000000 ) ) ;
#60 = CARTESIAN_POINT ( 'NONE',  ( 3.978615462567139800E-016, 8.572527594031473000E-015, -70.00000000000000000 ) ) ;
#61 = CARTESIAN_POINT ( 'NONE',  ( 19.30000000000000100, 7.960204194457797300E-015, -65.00000000000000000 ) ) ;
#62 = FACE_OUTER_BOUND ( 'NONE', #42, .T. ) ;
#63 = ORIENTED_EDGE ( 'NONE', *, *, #217, .T. ) ;
#64 = DIRECTION ( 'NONE',  ( -1.000000000000000000, -0.0000000000000000000, -0.0000000000000000000 ) ) ;
#65 = DIRECTION ( 'NONE',  ( 0.0000000000000000000, 0.0000000000000000000, -1.000000000000000000 ) ) ;
#66 = PLANE ( 'NONE',  #54 ) ;
#67 = AXIS2_PLACEMENT_3D ( 'NONE', #177, #206, #53 ) ;
#68 =( BOUNDED_CURVE ( )  B_SPLINE_CURVE ( 3, ( #184, #270, #70, #71 ),
 .UNSPECIFIED., .F., .F. ) 
 B_SPLINE_CURVE_WITH_KNOTS ( ( 4, 4 ),
 ( 1.570796326794896800, 4.712388980384689700 ),
 .UNSPECIFIED. ) 
 CURVE ( )  GEOMETRIC_REPRESENTATION_ITEM ( )  RATIONAL_B_SPLINE_CURVE ( ( 1.000000000000000000, 0.3333333333333333700, 0.3333333333333333700, 1.000000000000000000 ) ) 
 REPRESENTATION_ITEM ( '' )  );
#69 = EDGE_LOOP ( 'NONE', ( #145, #374 ) ) ;
#70 = CARTESIAN_POINT ( 'NONE',  ( 132.1640935440329900, 139.9999999999999700, 69.99999999999998600 ) ) ;
#71 = CARTESIAN_POINT ( 'NONE',  ( 97.83590645596696300, 0.0000000000000000000, 70.00000000000000000 ) ) ;
#72 = ORIENTED_EDGE ( 'NONE', *, *, #306, .F. ) ;
#73 = MECHANICAL_DESIGN_GEOMETRIC_PRESENTATION_REPRESENTATION (  '', ( #187 ), #94 ) ;
#74 = DIRECTION ( 'NONE',  ( 0.0000000000000000000, 0.0000000000000000000, -1.000000000000000000 ) ) ;
#75 = ORIENTED_EDGE ( 'NONE', *, *, #45, .T. ) ;
#76 = VERTEX_POINT ( 'NONE', #235 ) ;
#77 = ORIENTED_EDGE ( 'NONE', *, *, #234, .F. ) ;
#78 = DIRECTION ( 'NONE',  ( 0.0000000000000000000, 0.0000000000000000000, 1.000000000000000000 ) ) ;
#79 =( BOUNDED_CURVE ( )  B_SPLINE_CURVE ( 3, ( #295, #156, #298, #126 ),
 .UNSPECIFIED., .F., .F. ) 
 B_SPLINE_CURVE_WITH_KNOTS ( ( 4, 4 ),
 ( 4.712388980384689700, 7.853981633974482800 ),
 .UNSPECIFIED. ) 
 CURVE ( )  GEOMETRIC_REPRESENTATION_ITEM ( )  RATIONAL_B_SPLINE_CURVE ( ( 1.000000000000000000, 0.3333333333333333700, 0.3333333333333333700, 1.000000000000000000 ) ) 
 REPRESENTATION_ITEM ( '' )  );
#80 = LINE ( 'NONE', #84, #2 ) ;
#81 = CIRCLE ( 'NONE', #144, 65.00000000000000000 ) ;
#82 = EDGE_LOOP ( 'NONE', ( #49, #213, #111, #221 ) ) ;
#83 = CARTESIAN_POINT ( 'NONE',  ( 92.28725561517515500, -22.62895840429934000, -97.00000000000001400 ) ) ;
#84 = CARTESIAN_POINT ( 'NONE',  ( 0.0000000000000000000, 7.960204194457797300E-015, -65.00000000000000000 ) ) ;
#85 = FACE_BOUND ( 'NONE', #296, .T. ) ;
#86 = CARTESIAN_POINT ( 'NONE',  ( 59.70000000000000300, 0.0000000000000000000, 0.0000000000000000000 ) ) ;
#87 = ORIENTED_EDGE ( 'NONE', *, *, #345, .F. ) ;
#88 = DIRECTION ( 'NONE',  ( 0.0000000000000000000, 0.0000000000000000000, 1.000000000000000000 ) ) ;
#89 =( GEOMETRIC_REPRESENTATION_CONTEXT ( 3 ) GLOBAL_UNCERTAINTY_ASSIGNED_CONTEXT ( ( #55 ) ) GLOBAL_UNIT_ASSIGNED_CONTEXT ( ( #138, #110, #201 ) ) REPRESENTATION_CONTEXT ( 'NONE', 'WORKASPACE' ) );
#90 = AXIS2_PLACEMENT_3D ( 'NONE', #95, #348, #349 ) ;
#91 = COLOUR_RGB ( '',0.6470588235294118000, 0.6196078431372549200, 0.5882352941176470800 ) ;
#92 = LINE ( 'NONE', #248, #281 ) ;
#93 = DIRECTION ( 'NONE',  ( 0.0000000000000000000, 0.0000000000000000000, 1.000000000000000000 ) ) ;
#94 =( GEOMETRIC_REPRESENTATION_CONTEXT ( 3 ) GLOBAL_UNCERTAINTY_ASSIGNED_CONTEXT ( ( #275 ) ) GLOBAL_UNIT_ASSIGNED_CONTEXT ( ( #369, #249, #203 ) ) REPRESENTATION_CONTEXT ( 'NONE', 'WORKASPACE' ) );
#95 = CARTESIAN_POINT ( 'NONE',  ( 19.30000000000000100, 0.0000000000000000000, 0.0000000000000000000 ) ) ;
#96 = ORIENTED_EDGE ( 'NONE', *, *, #139, .F. ) ;
#97 = DIRECTION ( 'NONE',  ( 1.000000000000000000, 0.0000000000000000000, 0.0000000000000000000 ) ) ;
#98 =( NAMED_UNIT ( * ) PLANE_ANGLE_UNIT ( ) SI_UNIT ( $, .RADIAN. ) );
#99 = PRESENTATION_STYLE_ASSIGNMENT (( #246 ) ) ;
#100 = CARTESIAN_POINT ( 'NONE',  ( 3.978615462567139800E-016, 0.0000000000000000000, 70.00000000000000000 ) ) ;
#101 = CYLINDRICAL_SURFACE ( 'NONE', #67, 60.00000000000000000 ) ;
#102 = ORIENTED_EDGE ( 'NONE', *, *, #3, .F. ) ;
#103 = ADVANCED_FACE ( 'NONE', ( #62 ), #170, .T. ) ;
#104 = FILL_AREA_STYLE ('',( #169 ) ) ;
#105 = ADVANCED_FACE ( 'NONE', ( #51 ), #359, .F. ) ;
#106 = EDGE_CURVE ( 'NONE', #116, #265, #282, .T. ) ;
#107 = ORIENTED_EDGE ( 'NONE', *, *, #285, .T. ) ;
#108 = CARTESIAN_POINT ( 'NONE',  ( 0.0000000000000000000, 0.0000000000000000000, 0.0000000000000000000 ) ) ;
#109 =( GEOMETRIC_REPRESENTATION_CONTEXT ( 3 ) GLOBAL_UNCERTAINTY_ASSIGNED_CONTEXT ( ( #153 ) ) GLOBAL_UNIT_ASSIGNED_CONTEXT ( ( #38, #98, #186 ) ) REPRESENTATION_CONTEXT ( 'NONE', 'WORKASPACE' ) );
#110 =( NAMED_UNIT ( * ) PLANE_ANGLE_UNIT ( ) SI_UNIT ( $, .RADIAN. ) );
#111 = ORIENTED_EDGE ( 'NONE', *, *, #361, .T. ) ;
#112 =( BOUNDED_CURVE ( )  B_SPLINE_CURVE ( 3, ( #215, #268, #181, #59 ),
 .UNSPECIFIED., .F., .T. ) 
 B_SPLINE_CURVE_WITH_KNOTS ( ( 4, 4 ),
 ( 1.570796326794896800, 4.712388980384689700 ),
 .UNSPECIFIED. ) 
 CURVE ( )  GEOMETRIC_REPRESENTATION_ITEM ( )  RATIONAL_B_SPLINE_CURVE ( ( 1.000000000000000000, 0.3333333333333333700, 0.3333333333333333700, 1.000000000000000000 ) ) 
 REPRESENTATION_ITEM ( '' )  );
#113 = CARTESIAN_POINT ( 'NONE',  ( 0.0000000000000000000, 8.572527594031473000E-015, -70.00000000000000000 ) ) ;
#114 = PRESENTATION_LAYER_ASSIGNMENT (  '', '', ( #30 ) ) ;
#115 = CLOSED_SHELL ( 'NONE', ( #224, #358, #103, #193, #105, #301, #335, #337, #330, #17, #276, #130 ) ) ;
#116 = VERTEX_POINT ( 'NONE', #214 ) ;
#117 = VERTEX_POINT ( 'NONE', #50 ) ;
#118 = FACE_BOUND ( 'NONE', #204, .T. ) ;
#119 = CARTESIAN_POINT ( 'NONE',  ( -1.916532555079286800E-015, 0.0000000000000000000, 0.0000000000000000000 ) ) ;
#120 = PRODUCT_DEFINITION ( 'UNKNOWN', '', #314, #199 ) ;
#121 = DIRECTION ( 'NONE',  ( 0.0000000000000000000, 0.0000000000000000000, 1.000000000000000000 ) ) ;
#122 = CARTESIAN_POINT ( 'NONE',  ( 0.0000000000000000000, 0.0000000000000000000, 0.0000000000000000000 ) ) ;
#123 = LINE ( 'NONE', #318, #253 ) ;
#124 = FACE_OUTER_BOUND ( 'NONE', #174, .T. ) ;
#125 = ORIENTED_EDGE ( 'NONE', *, *, #106, .F. ) ;
#126 = CARTESIAN_POINT ( 'NONE',  ( 97.83590645596696300, 0.0000000000000000000, 65.00000000000000000 ) ) ;
#127 = CARTESIAN_POINT ( 'NONE',  ( 19.30000000000000100, 0.0000000000000000000, 0.0000000000000000000 ) ) ;
#128 = CYLINDRICAL_SURFACE ( 'NONE', #327, 65.00000000000000000 ) ;
#129 = DIRECTION ( 'NONE',  ( -1.000000000000000000, 0.0000000000000000000, -0.0000000000000000000 ) ) ;
#130 = ADVANCED_FACE ( 'NONE', ( #191, #118 ), #317, .T. ) ;
#131 = ORIENTED_EDGE ( 'NONE', *, *, #164, .F. ) ;
#132 = DIRECTION ( 'NONE',  ( 0.0000000000000000000, 0.0000000000000000000, 1.000000000000000000 ) ) ;
#133 = SURFACE_STYLE_FILL_AREA ( #12 ) ;
#134 = DIRECTION ( 'NONE',  ( -1.000000000000000000, -0.0000000000000000000, -0.0000000000000000000 ) ) ;
#135 = DIRECTION ( 'NONE',  ( -1.000000000000000000, -0.0000000000000000000, -0.0000000000000000000 ) ) ;
#136 = EDGE_LOOP ( 'NONE', ( #19, #176, #166, #14 ) ) ;
#137 = AXIS2_PLACEMENT_3D ( 'NONE', #47, #338, #78 ) ;
#138 =( LENGTH_UNIT ( ) NAMED_UNIT ( * ) SI_UNIT ( .MILLI., .METRE. ) );
#139 = EDGE_CURVE ( 'NONE', #303, #289, #333, .T. ) ;
#140 = APPLICATION_CONTEXT ( 'automotive_design' ) ;
#141 = FACE_OUTER_BOUND ( 'NONE', #320, .T. ) ;
#142 = EDGE_LOOP ( 'NONE', ( #254, #25, #243, #347 ) ) ;
#143 = DIRECTION ( 'NONE',  ( -1.000000000000000000, -0.0000000000000000000, -0.0000000000000000000 ) ) ;
#144 = AXIS2_PLACEMENT_3D ( 'NONE', #4, #219, #264 ) ;
#145 = ORIENTED_EDGE ( 'NONE', *, *, #250, .T. ) ;
#146 = CYLINDRICAL_SURFACE ( 'NONE', #36, 60.00000000000000000 ) ;
#147 = AXIS2_PLACEMENT_3D ( 'NONE', #122, #350, #179 ) ;
#148 = DIRECTION ( 'NONE',  ( -1.000000000000000000, -0.0000000000000000000, -0.0000000000000000000 ) ) ;
#149 = CARTESIAN_POINT ( 'NONE',  ( 97.83590645596696300, 7.960204194457797300E-015, -65.00000000000000000 ) ) ;
#150 = ORIENTED_EDGE ( 'NONE', *, *, #271, .T. ) ;
#151 = CARTESIAN_POINT ( 'NONE',  ( 59.70000000000000300, 0.0000000000000000000, 0.0000000000000000000 ) ) ;
#152 = EDGE_CURVE ( 'NONE', #237, #117, #7, .T. ) ;
#153 = UNCERTAINTY_MEASURE_WITH_UNIT (LENGTH_MEASURE( 1.000000000000000100E-005 ), #38, 'distance_accuracy_value', 'NONE');
#154 = AXIS2_PLACEMENT_3D ( 'NONE', #297, #180, #216 ) ;
#155 = FACE_OUTER_BOUND ( 'NONE', #343, .T. ) ;
#156 = CARTESIAN_POINT ( 'NONE',  ( 65.95973273133421300, -129.9999999999999700, -65.00000000000002800 ) ) ;
#157 = ORIENTED_EDGE ( 'NONE', *, *, #217, .F. ) ;
#158 = CARTESIAN_POINT ( 'NONE',  ( 63.50771936790092600, -139.9999999999999700, 70.00000000000002800 ) ) ;
#159 = DIRECTION ( 'NONE',  ( -1.000000000000000000, -0.0000000000000000000, -0.0000000000000000000 ) ) ;
#160 = FACE_BOUND ( 'NONE', #334, .T. ) ;
#161 = DIRECTION ( 'NONE',  ( 0.0000000000000000000, 0.0000000000000000000, 1.000000000000000000 ) ) ;
#162 = FACE_OUTER_BOUND ( 'NONE', #266, .T. ) ;
#163 = FACE_OUTER_BOUND ( 'NONE', #308, .T. ) ;
#164 = EDGE_CURVE ( 'NONE', #190, #288, #171, .T. ) ;
#165 = APPLICATION_PROTOCOL_DEFINITION ( 'draft international standard', 'automotive_design', 1998, #140 ) ;
#166 = ORIENTED_EDGE ( 'NONE', *, *, #326, .T. ) ;
#167 = APPLICATION_PROTOCOL_DEFINITION ( 'draft international standard', 'automotive_design', 1998, #342 ) ;
#168 = AXIS2_PLACEMENT_3D ( 'NONE', #127, #13, #245 ) ;
#169 = FILL_AREA_STYLE_COLOUR ( '', #91 ) ;
#170 = CYLINDRICAL_SURFACE ( 'NONE', #8, 70.00000000000000000 ) ;
#171 = LINE ( 'NONE', #322, #312 ) ;
#172 = EDGE_CURVE ( 'NONE', #183, #313, #205, .T. ) ;
#173 = CARTESIAN_POINT ( 'NONE',  ( 3.978615462567139800E-016, 0.0000000000000000000, 0.0000000000000000000 ) ) ;
#174 = EDGE_LOOP ( 'NONE', ( #373, #353 ) ) ;
#175 = VERTEX_POINT ( 'NONE', #60 ) ;
#176 = ORIENTED_EDGE ( 'NONE', *, *, #250, .F. ) ;
#177 = CARTESIAN_POINT ( 'NONE',  ( 0.0000000000000000000, 0.0000000000000000000, 0.0000000000000000000 ) ) ;
#178 = EDGE_CURVE ( 'NONE', #76, #230, #112, .T. ) ;
#179 = DIRECTION ( 'NONE',  ( 0.0000000000000000000, 0.0000000000000000000, 1.000000000000000000 ) ) ;
#180 = DIRECTION ( 'NONE',  ( -1.000000000000000000, -0.0000000000000000000, -0.0000000000000000000 ) ) ;
#181 = CARTESIAN_POINT ( 'NONE',  ( 129.7120801805997100, 129.9999999999999700, -64.99999999999997200 ) ) ;
#182 = ORIENTED_EDGE ( 'NONE', *, *, #363, .T. ) ;
#183 = VERTEX_POINT ( 'NONE', #35 ) ;
#184 = CARTESIAN_POINT ( 'NONE',  ( 97.83590645596696300, 8.572527594031473000E-015, -70.00000000000000000 ) ) ;
#185 = ORIENTED_EDGE ( 'NONE', *, *, #26, .T. ) ;
#186 =( NAMED_UNIT ( * ) SI_UNIT ( $, .STERADIAN. ) SOLID_ANGLE_UNIT ( ) );
#187 = STYLED_ITEM ( 'NONE', ( #310 ), #364 ) ;
#188 = CARTESIAN_POINT ( 'NONE',  ( 19.30000000000000400, 0.0000000000000000000, 60.00000000000000000 ) ) ;
#189 = FILL_AREA_STYLE_COLOUR ( '', #11 ) ;
#190 = VERTEX_POINT ( 'NONE', #239 ) ;
#191 = FACE_OUTER_BOUND ( 'NONE', #223, .T. ) ;
#192 = PLANE ( 'NONE',  #197 ) ;
#193 = ADVANCED_FACE ( 'NONE', ( #162 ), #260, .F. ) ;
#194 = DIRECTION ( 'NONE',  ( -1.000000000000000000, -0.0000000000000000000, -0.0000000000000000000 ) ) ;
#195 = AXIS2_PLACEMENT_3D ( 'NONE', #86, #290, #88 ) ;
#196 = ORIENTED_EDGE ( 'NONE', *, *, #363, .F. ) ;
#197 = AXIS2_PLACEMENT_3D ( 'NONE', #40, #129, #357 ) ;
#198 = CARTESIAN_POINT ( 'NONE',  ( 0.0000000000000000000, 0.0000000000000000000, 65.00000000000000000 ) ) ;
#199 = PRODUCT_DEFINITION_CONTEXT ( 'detailed design', #140, 'design' ) ;
#200 = VECTOR ( 'NONE', #135, 1000.000000000000000 ) ;
#201 =( NAMED_UNIT ( * ) SI_UNIT ( $, .STERADIAN. ) SOLID_ANGLE_UNIT ( ) );
#202 = CIRCLE ( 'NONE', #292, 65.00000000000000000 ) ;
#203 =( NAMED_UNIT ( * ) SI_UNIT ( $, .STERADIAN. ) SOLID_ANGLE_UNIT ( ) );
#204 = EDGE_LOOP ( 'NONE', ( #28, #63 ) ) ;
#205 = CIRCLE ( 'NONE', #329, 65.00000000000000000 ) ;
#206 = DIRECTION ( 'NONE',  ( -1.000000000000000000, -0.0000000000000000000, -0.0000000000000000000 ) ) ;
#207 = ORIENTED_EDGE ( 'NONE', *, *, #3, .T. ) ;
#208 = DIRECTION ( 'NONE',  ( -1.000000000000000000, -0.0000000000000000000, -0.0000000000000000000 ) ) ;
#209 = CARTESIAN_POINT ( 'NONE',  ( 0.0000000000000000000, 0.0000000000000000000, 60.00000000000000000 ) ) ;
#210 = FACE_BOUND ( 'NONE', #258, .T. ) ;
#211 =( BOUNDED_CURVE ( )  B_SPLINE_CURVE ( 3, ( #277, #158, #299, #328 ),
 .UNSPECIFIED., .F., .T. ) 
 B_SPLINE_CURVE_WITH_KNOTS ( ( 4, 4 ),
 ( 4.712388980384689700, 7.853981633974482800 ),
 .UNSPECIFIED. ) 
 CURVE ( )  GEOMETRIC_REPRESENTATION_ITEM ( )  RATIONAL_B_SPLINE_CURVE ( ( 1.000000000000000000, 0.3333333333333333700, 0.3333333333333333700, 1.000000000000000000 ) ) 
 REPRESENTATION_ITEM ( '' )  );
#212 = CARTESIAN_POINT ( 'NONE',  ( 0.0000000000000000000, 0.0000000000000000000, 0.0000000000000000000 ) ) ;
#213 = ORIENTED_EDGE ( 'NONE', *, *, #178, .F. ) ;
#214 = CARTESIAN_POINT ( 'NONE',  ( 59.70000000000000300, 0.0000000000000000000, 60.00000000000000000 ) ) ;
#215 = CARTESIAN_POINT ( 'NONE',  ( 97.83590645596696300, 0.0000000000000000000, 65.00000000000000000 ) ) ;
#216 = DIRECTION ( 'NONE',  ( 0.0000000000000000000, 0.0000000000000000000, 1.000000000000000000 ) ) ;
#217 = EDGE_CURVE ( 'NONE', #230, #76, #79, .T. ) ;
#218 = AXIS2_PLACEMENT_3D ( 'NONE', #37, #332, #65 ) ;
#219 = DIRECTION ( 'NONE',  ( -1.000000000000000000, -0.0000000000000000000, -0.0000000000000000000 ) ) ;
#220 = DIRECTION ( 'NONE',  ( -1.000000000000000000, -0.0000000000000000000, -0.0000000000000000000 ) ) ;
#221 = ORIENTED_EDGE ( 'NONE', *, *, #172, .T. ) ;
#222 = CARTESIAN_POINT ( 'NONE',  ( -1.916532555079286800E-015, 0.0000000000000000000, 65.00000000000000000 ) ) ;
#223 = EDGE_LOOP ( 'NONE', ( #150, #341 ) ) ;
#224 = ADVANCED_FACE ( 'NONE', ( #319 ), #146, .F. ) ;
#225 = CARTESIAN_POINT ( 'NONE',  ( 59.70000000000000300, 0.0000000000000000000, 0.0000000000000000000 ) ) ;
#226 = CIRCLE ( 'NONE', #273, 70.00000000000000000 ) ;
#227 = ORIENTED_EDGE ( 'NONE', *, *, #234, .T. ) ;
#228 = SURFACE_SIDE_STYLE ('',( #46 ) ) ;
#229 = LINE ( 'NONE', #198, #200 ) ;
#230 = VERTEX_POINT ( 'NONE', #149 ) ;
#231 = PRESENTATION_LAYER_ASSIGNMENT (  '', '', ( #187 ) ) ;
#232 = VERTEX_POINT ( 'NONE', #324 ) ;
#233 = FACE_OUTER_BOUND ( 'NONE', #136, .T. ) ;
#234 = EDGE_CURVE ( 'NONE', #232, #265, #368, .T. ) ;
#235 = CARTESIAN_POINT ( 'NONE',  ( 97.83590645596696300, 0.0000000000000000000, 65.00000000000000000 ) ) ;
#236 = MECHANICAL_DESIGN_GEOMETRIC_PRESENTATION_REPRESENTATION (  '', ( #30 ), #109 ) ;
#237 = VERTEX_POINT ( 'NONE', #61 ) ;
#238 = DIRECTION ( 'NONE',  ( 0.0000000000000000000, 0.0000000000000000000, 1.000000000000000000 ) ) ;
#239 = CARTESIAN_POINT ( 'NONE',  ( 97.83590645596696300, 0.0000000000000000000, 70.00000000000000000 ) ) ;
#240 = DIRECTION ( 'NONE',  ( 0.0000000000000000000, 0.0000000000000000000, 1.000000000000000000 ) ) ;
#241 = EDGE_CURVE ( 'NONE', #289, #303, #81, .T. ) ;
#242 = SURFACE_SIDE_STYLE ('',( #133 ) ) ;
#243 = ORIENTED_EDGE ( 'NONE', *, *, #164, .T. ) ;
#244 = CARTESIAN_POINT ( 'NONE',  ( -1.916532555079286800E-015, 7.960204194457797300E-015, -65.00000000000000000 ) ) ;
#245 = DIRECTION ( 'NONE',  ( 0.0000000000000000000, 0.0000000000000000000, 1.000000000000000000 ) ) ;
#246 = SURFACE_STYLE_USAGE ( .BOTH. , #242 ) ;
#247 = LINE ( 'NONE', #113, #34 ) ;
#248 = CARTESIAN_POINT ( 'NONE',  ( 0.0000000000000000000, 7.347880794884118400E-015, -60.00000000000000000 ) ) ;
#249 =( NAMED_UNIT ( * ) PLANE_ANGLE_UNIT ( ) SI_UNIT ( $, .RADIAN. ) );
#250 = EDGE_CURVE ( 'NONE', #117, #237, #20, .T. ) ;
#251 = CARTESIAN_POINT ( 'NONE',  ( 0.0000000000000000000, 0.0000000000000000000, 0.0000000000000000000 ) ) ;
#252 = LINE ( 'NONE', #279, #356 ) ;
#253 = VECTOR ( 'NONE', #143, 1000.000000000000000 ) ;
#254 = ORIENTED_EDGE ( 'NONE', *, *, #29, .F. ) ;
#255 = PRODUCT_RELATED_PRODUCT_CATEGORY ( 'part', '', ( #315 ) ) ;
#256 = SHAPE_DEFINITION_REPRESENTATION ( #10, #364 ) ;
#257 = DIRECTION ( 'NONE',  ( -1.000000000000000000, -0.0000000000000000000, -0.0000000000000000000 ) ) ;
#258 = EDGE_LOOP ( 'NONE', ( #96, #367 ) ) ;
#259 = EDGE_CURVE ( 'NONE', #300, #190, #68, .T. ) ;
#260 = CYLINDRICAL_SURFACE ( 'NONE', #147, 65.00000000000000000 ) ;
#261 = ORIENTED_EDGE ( 'NONE', *, *, #152, .F. ) ;
#262 = FACE_OUTER_BOUND ( 'NONE', #142, .T. ) ;
#263 = DIRECTION ( 'NONE',  ( -1.000000000000000000, -0.0000000000000000000, -0.0000000000000000000 ) ) ;
#264 = DIRECTION ( 'NONE',  ( 0.0000000000000000000, 0.0000000000000000000, 1.000000000000000000 ) ) ;
#265 = VERTEX_POINT ( 'NONE', #188 ) ;
#266 = EDGE_LOOP ( 'NONE', ( #157, #185, #107, #339 ) ) ;
#267 = DIRECTION ( 'NONE',  ( -1.000000000000000000, -0.0000000000000000000, -0.0000000000000000000 ) ) ;
#268 = CARTESIAN_POINT ( 'NONE',  ( 129.7120801805997100, 129.9999999999999700, 64.99999999999997200 ) ) ;
#269 = EDGE_LOOP ( 'NONE', ( #72, #309, #227, #125 ) ) ;
#270 = CARTESIAN_POINT ( 'NONE',  ( 132.1640935440329900, 139.9999999999999700, -69.99999999999998600 ) ) ;
#271 = EDGE_CURVE ( 'NONE', #190, #300, #211, .T. ) ;
#272 = AXIS2_PLACEMENT_3D ( 'NONE', #360, #284, #22 ) ;
#273 = AXIS2_PLACEMENT_3D ( 'NONE', #173, #344, #287 ) ;
#274 = CYLINDRICAL_SURFACE ( 'NONE', #137, 65.00000000000000000 ) ;
#275 = UNCERTAINTY_MEASURE_WITH_UNIT (LENGTH_MEASURE( 1.000000000000000100E-005 ), #369, 'distance_accuracy_value', 'NONE');
#276 = ADVANCED_FACE ( 'NONE', ( #124, #160 ), #192, .F. ) ;
#277 = CARTESIAN_POINT ( 'NONE',  ( 97.83590645596696300, 0.0000000000000000000, 70.00000000000000000 ) ) ;
#278 = ORIENTED_EDGE ( 'NONE', *, *, #291, .F. ) ;
#279 = CARTESIAN_POINT ( 'NONE',  ( 0.0000000000000000000, 0.0000000000000000000, 65.00000000000000000 ) ) ;
#280 = DIRECTION ( 'NONE',  ( -1.000000000000000000, -0.0000000000000000000, -0.0000000000000000000 ) ) ;
#281 = VECTOR ( 'NONE', #331, 1000.000000000000000 ) ;
#282 = LINE ( 'NONE', #209, #311 ) ;
#283 = ORIENTED_EDGE ( 'NONE', *, *, #259, .F. ) ;
#284 = DIRECTION ( 'NONE',  ( -1.000000000000000000, -0.0000000000000000000, -0.0000000000000000000 ) ) ;
#285 = EDGE_CURVE ( 'NONE', #313, #183, #202, .T. ) ;
#286 = DIRECTION ( 'NONE',  ( 0.0000000000000000000, 0.0000000000000000000, 1.000000000000000000 ) ) ;
#287 = DIRECTION ( 'NONE',  ( 0.0000000000000000000, 0.0000000000000000000, 1.000000000000000000 ) ) ;
#288 = VERTEX_POINT ( 'NONE', #100 ) ;
#289 = VERTEX_POINT ( 'NONE', #244 ) ;
#290 = DIRECTION ( 'NONE',  ( -1.000000000000000000, -0.0000000000000000000, -0.0000000000000000000 ) ) ;
#291 = EDGE_CURVE ( 'NONE', #371, #232, #92, .T. ) ;
#292 = AXIS2_PLACEMENT_3D ( 'NONE', #9, #220, #161 ) ;
#293 = CYLINDRICAL_SURFACE ( 'NONE', #365, 70.00000000000000000 ) ;
#294 = AXIS2_PLACEMENT_3D ( 'NONE', #119, #1, #240 ) ;
#295 = CARTESIAN_POINT ( 'NONE',  ( 97.83590645596696300, 7.960204194457797300E-015, -65.00000000000000000 ) ) ;
#296 = EDGE_LOOP ( 'NONE', ( #196, #77 ) ) ;
#297 = CARTESIAN_POINT ( 'NONE',  ( 19.30000000000000400, 0.0000000000000000000, 0.0000000000000000000 ) ) ;
#298 = CARTESIAN_POINT ( 'NONE',  ( 65.95973273133421300, -129.9999999999999700, 64.99999999999998600 ) ) ;
#299 = CARTESIAN_POINT ( 'NONE',  ( 63.50771936790092600, -139.9999999999999700, -69.99999999999998600 ) ) ;
#300 = VERTEX_POINT ( 'NONE', #302 ) ;
#301 = ADVANCED_FACE ( 'NONE', ( #262 ), #293, .T. ) ;
#302 = CARTESIAN_POINT ( 'NONE',  ( 97.83590645596696300, 8.572527594031473000E-015, -70.00000000000000000 ) ) ;
#303 = VERTEX_POINT ( 'NONE', #222 ) ;
#304 = CIRCLE ( 'NONE', #307, 60.00000000000000000 ) ;
#305 = DIRECTION ( 'NONE',  ( 1.000000000000000000, 0.0000000000000000000, 0.0000000000000000000 ) ) ;
#306 = EDGE_CURVE ( 'NONE', #371, #116, #304, .T. ) ;
#307 = AXIS2_PLACEMENT_3D ( 'NONE', #225, #280, #39 ) ;
#308 = EDGE_LOOP ( 'NONE', ( #261, #75, #340, #325 ) ) ;
#309 = ORIENTED_EDGE ( 'NONE', *, *, #291, .T. ) ;
#310 = PRESENTATION_STYLE_ASSIGNMENT (( #41 ) ) ;
#311 = VECTOR ( 'NONE', #263, 1000.000000000000000 ) ;
#312 = VECTOR ( 'NONE', #148, 1000.000000000000000 ) ;
#313 = VERTEX_POINT ( 'NONE', #351 ) ;
#314 = PRODUCT_DEFINITION_FORMATION_WITH_SPECIFIED_SOURCE ( 'ANY', '', #315, .NOT_KNOWN. ) ;
#315 = PRODUCT ( 'Fusée av gauche', 'Fusée av gauche', '', ( #44 ) ) ;
#316 = MANIFOLD_SOLID_BREP ( 'Enlèv. mat.-Extru.1[1]', #115 ) ;
#317 = PLANE ( 'NONE',  #48 ) ;
#318 = CARTESIAN_POINT ( 'NONE',  ( 0.0000000000000000000, 7.960204194457797300E-015, -65.00000000000000000 ) ) ;
#319 = FACE_OUTER_BOUND ( 'NONE', #269, .T. ) ;
#320 = EDGE_LOOP ( 'NONE', ( #278, #102, #58, #182 ) ) ;
#321 = CARTESIAN_POINT ( 'NONE',  ( 0.0000000000000000000, 0.0000000000000000000, 0.0000000000000000000 ) ) ;
#322 = CARTESIAN_POINT ( 'NONE',  ( 0.0000000000000000000, 0.0000000000000000000, 70.00000000000000000 ) ) ;
#323 = CARTESIAN_POINT ( 'NONE',  ( 0.0000000000000000000, 0.0000000000000000000, 0.0000000000000000000 ) ) ;
#324 = CARTESIAN_POINT ( 'NONE',  ( 19.30000000000000400, 7.347880794884118400E-015, -60.00000000000000000 ) ) ;
#325 = ORIENTED_EDGE ( 'NONE', *, *, #326, .F. ) ;
#326 = EDGE_CURVE ( 'NONE', #117, #303, #252, .T. ) ;
#327 = AXIS2_PLACEMENT_3D ( 'NONE', #251, #194, #286 ) ;
#328 = CARTESIAN_POINT ( 'NONE',  ( 97.83590645596696300, 8.572527594031473000E-015, -70.00000000000000000 ) ) ;
#329 = AXIS2_PLACEMENT_3D ( 'NONE', #151, #64, #93 ) ;
#330 = ADVANCED_FACE ( 'NONE', ( #85, #370 ), #15, .F. ) ;
#331 = DIRECTION ( 'NONE',  ( -1.000000000000000000, -0.0000000000000000000, -0.0000000000000000000 ) ) ;
#332 = DIRECTION ( 'NONE',  ( 1.000000000000000000, 0.0000000000000000000, 0.0000000000000000000 ) ) ;
#333 = CIRCLE ( 'NONE', #294, 65.00000000000000000 ) ;
#334 = EDGE_LOOP ( 'NONE', ( #207, #21 ) ) ;
#335 = ADVANCED_FACE ( 'NONE', ( #210, #155 ), #66, .F. ) ;
#336 = CARTESIAN_POINT ( 'NONE',  ( -7.593355044112863700E-016, 70.00000000000000000, 0.0000000000000000000 ) ) ;
#337 = ADVANCED_FACE ( 'NONE', ( #233 ), #274, .F. ) ;
#338 = DIRECTION ( 'NONE',  ( -1.000000000000000000, -0.0000000000000000000, -0.0000000000000000000 ) ) ;
#339 = ORIENTED_EDGE ( 'NONE', *, *, #361, .F. ) ;
#340 = ORIENTED_EDGE ( 'NONE', *, *, #241, .T. ) ;
#341 = ORIENTED_EDGE ( 'NONE', *, *, #259, .T. ) ;
#342 = APPLICATION_CONTEXT ( 'automotive_design' ) ;
#343 = EDGE_LOOP ( 'NONE', ( #52, #57 ) ) ;
#344 = DIRECTION ( 'NONE',  ( -1.000000000000000000, -0.0000000000000000000, -0.0000000000000000000 ) ) ;
#345 = EDGE_CURVE ( 'NONE', #288, #175, #56, .T. ) ;
#346 = DIRECTION ( 'NONE',  ( -1.000000000000000000, -0.0000000000000000000, -0.0000000000000000000 ) ) ;
#347 = ORIENTED_EDGE ( 'NONE', *, *, #5, .F. ) ;
#348 = DIRECTION ( 'NONE',  ( -1.000000000000000000, -0.0000000000000000000, -0.0000000000000000000 ) ) ;
#349 = DIRECTION ( 'NONE',  ( 0.0000000000000000000, 0.0000000000000000000, 1.000000000000000000 ) ) ;
#350 = DIRECTION ( 'NONE',  ( -1.000000000000000000, -0.0000000000000000000, -0.0000000000000000000 ) ) ;
#351 = CARTESIAN_POINT ( 'NONE',  ( 59.70000000000000300, 7.960204194457797300E-015, -65.00000000000000000 ) ) ;
#352 = ORIENTED_EDGE ( 'NONE', *, *, #29, .T. ) ;
#353 = ORIENTED_EDGE ( 'NONE', *, *, #285, .F. ) ;
#354 = AXIS2_PLACEMENT_3D ( 'NONE', #108, #18, #305 ) ;
#355 = CARTESIAN_POINT ( 'NONE',  ( 0.0000000000000000000, 0.0000000000000000000, 0.0000000000000000000 ) ) ;
#356 = VECTOR ( 'NONE', #134, 1000.000000000000000 ) ;
#357 = DIRECTION ( 'NONE',  ( -0.0000000000000000000, 0.0000000000000000000, 1.000000000000000000 ) ) ;
#358 = ADVANCED_FACE ( 'NONE', ( #163 ), #128, .F. ) ;
#359 = CYLINDRICAL_SURFACE ( 'NONE', #31, 65.00000000000000000 ) ;
#360 = CARTESIAN_POINT ( 'NONE',  ( 3.978615462567139800E-016, 0.0000000000000000000, 0.0000000000000000000 ) ) ;
#361 = EDGE_CURVE ( 'NONE', #76, #183, #229, .T. ) ;
#362 = DIRECTION ( 'NONE',  ( -1.000000000000000000, -0.0000000000000000000, -0.0000000000000000000 ) ) ;
#363 = EDGE_CURVE ( 'NONE', #265, #232, #23, .T. ) ;
#364 = ADVANCED_BREP_SHAPE_REPRESENTATION ( 'FusÚe av gauche', ( #316, #354 ), #89 ) ;
#365 = AXIS2_PLACEMENT_3D ( 'NONE', #355, #159, #132 ) ;
#366 = CARTESIAN_POINT ( 'NONE',  ( 59.70000000000000300, 7.347880794884118400E-015, -60.00000000000000000 ) ) ;
#367 = ORIENTED_EDGE ( 'NONE', *, *, #241, .F. ) ;
#368 = CIRCLE ( 'NONE', #154, 60.00000000000000000 ) ;
#369 =( LENGTH_UNIT ( ) NAMED_UNIT ( * ) SI_UNIT ( .MILLI., .METRE. ) );
#370 = FACE_OUTER_BOUND ( 'NONE', #69, .T. ) ;
#371 = VERTEX_POINT ( 'NONE', #366 ) ;
#372 = DIRECTION ( 'NONE',  ( 0.9712291958358351100, -0.2381466967146034500, 0.0000000000000000000 ) ) ;
#373 = ORIENTED_EDGE ( 'NONE', *, *, #172, .F. ) ;
#374 = ORIENTED_EDGE ( 'NONE', *, *, #152, .T. ) ;
ENDSEC;
END-ISO-10303-21;
