ISO-10303-21;
HEADER;
/* Generated by software containing ST-Developer
 * from STEP Tools, Inc. (www.steptools.com) 
 */

FILE_DESCRIPTION(
/* description */ (''),
/* implementation_level */ '2;1');

FILE_NAME(
/* name */ 'E:\\stephane_larhant\\step\\chariot_mat_axe_court.stp',
/* time_stamp */ '2021-03-29T18:24:27+02:00',
/* author */ ('Utilisateur'),
/* organization */ (''),
/* preprocessor_version */ 'ST-DEVELOPER v16.5',
/* originating_system */ 'Autodesk Inventor 2017',
/* authorisation */ '');

FILE_SCHEMA (('AUTOMOTIVE_DESIGN { 1 0 10303 214 3 1 1 }'));
ENDSEC;

DATA;
#10=MECHANICAL_DESIGN_GEOMETRIC_PRESENTATION_REPRESENTATION('',(#13),#403);
#11=SHAPE_REPRESENTATION_RELATIONSHIP('SRR','None',#412,#12);
#12=ADVANCED_BREP_SHAPE_REPRESENTATION('',(#14),#402);
#13=STYLED_ITEM('',(#421),#14);
#14=MANIFOLD_SOLID_BREP('Solide1',#237);
#15=LINE('',#350,#33);
#16=LINE('',#352,#34);
#17=LINE('',#354,#35);
#18=LINE('',#355,#36);
#19=LINE('',#358,#37);
#20=LINE('',#360,#38);
#21=LINE('',#361,#39);
#22=LINE('',#364,#40);
#23=LINE('',#366,#41);
#24=LINE('',#367,#42);
#25=LINE('',#370,#43);
#26=LINE('',#372,#44);
#27=LINE('',#373,#45);
#28=LINE('',#376,#46);
#29=LINE('',#378,#47);
#30=LINE('',#379,#48);
#31=LINE('',#381,#49);
#32=LINE('',#382,#50);
#33=VECTOR('',#285,10.);
#34=VECTOR('',#286,10.);
#35=VECTOR('',#287,10.);
#36=VECTOR('',#288,10.);
#37=VECTOR('',#291,10.);
#38=VECTOR('',#292,10.);
#39=VECTOR('',#293,10.);
#40=VECTOR('',#296,10.);
#41=VECTOR('',#297,10.);
#42=VECTOR('',#298,10.);
#43=VECTOR('',#301,10.);
#44=VECTOR('',#302,10.);
#45=VECTOR('',#303,10.);
#46=VECTOR('',#306,10.);
#47=VECTOR('',#307,10.);
#48=VECTOR('',#308,10.);
#49=VECTOR('',#311,10.);
#50=VECTOR('',#312,10.);
#51=PLANE('',#250);
#52=PLANE('',#251);
#53=PLANE('',#252);
#54=PLANE('',#253);
#55=PLANE('',#254);
#56=PLANE('',#255);
#57=PLANE('',#256);
#58=PLANE('',#257);
#59=PLANE('',#263);
#60=PLANE('',#264);
#61=PLANE('',#268);
#62=CYLINDRICAL_SURFACE('',#248,2.5);
#63=CYLINDRICAL_SURFACE('',#261,5.);
#64=CYLINDRICAL_SURFACE('',#266,3.);
#65=FACE_BOUND('',#90,.T.);
#66=FACE_BOUND('',#92,.T.);
#67=FACE_BOUND('',#102,.T.);
#68=FACE_BOUND('',#104,.T.);
#69=FACE_BOUND('',#106,.T.);
#70=FACE_BOUND('',#108,.T.);
#71=FACE_BOUND('',#110,.T.);
#72=FACE_BOUND('',#112,.T.);
#73=FACE_OUTER_BOUND('',#89,.T.);
#74=FACE_OUTER_BOUND('',#91,.T.);
#75=FACE_OUTER_BOUND('',#93,.T.);
#76=FACE_OUTER_BOUND('',#94,.T.);
#77=FACE_OUTER_BOUND('',#95,.T.);
#78=FACE_OUTER_BOUND('',#96,.T.);
#79=FACE_OUTER_BOUND('',#97,.T.);
#80=FACE_OUTER_BOUND('',#98,.T.);
#81=FACE_OUTER_BOUND('',#99,.T.);
#82=FACE_OUTER_BOUND('',#100,.T.);
#83=FACE_OUTER_BOUND('',#101,.T.);
#84=FACE_OUTER_BOUND('',#103,.T.);
#85=FACE_OUTER_BOUND('',#105,.T.);
#86=FACE_OUTER_BOUND('',#107,.T.);
#87=FACE_OUTER_BOUND('',#109,.T.);
#88=FACE_OUTER_BOUND('',#111,.T.);
#89=EDGE_LOOP('',(#167));
#90=EDGE_LOOP('',(#168));
#91=EDGE_LOOP('',(#169));
#92=EDGE_LOOP('',(#170));
#93=EDGE_LOOP('',(#171));
#94=EDGE_LOOP('',(#172,#173,#174,#175));
#95=EDGE_LOOP('',(#176,#177,#178,#179));
#96=EDGE_LOOP('',(#180,#181,#182,#183));
#97=EDGE_LOOP('',(#184,#185,#186,#187));
#98=EDGE_LOOP('',(#188,#189,#190,#191));
#99=EDGE_LOOP('',(#192,#193,#194,#195));
#100=EDGE_LOOP('',(#196,#197,#198,#199,#200,#201));
#101=EDGE_LOOP('',(#202));
#102=EDGE_LOOP('',(#203));
#103=EDGE_LOOP('',(#204));
#104=EDGE_LOOP('',(#205));
#105=EDGE_LOOP('',(#206));
#106=EDGE_LOOP('',(#207,#208,#209,#210,#211,#212));
#107=EDGE_LOOP('',(#213));
#108=EDGE_LOOP('',(#214));
#109=EDGE_LOOP('',(#215));
#110=EDGE_LOOP('',(#216));
#111=EDGE_LOOP('',(#217));
#112=EDGE_LOOP('',(#218));
#113=CIRCLE('',#246,2.5);
#114=CIRCLE('',#247,2.);
#115=CIRCLE('',#249,2.5);
#116=CIRCLE('',#259,5.);
#117=CIRCLE('',#260,4.5);
#118=CIRCLE('',#262,5.);
#119=CIRCLE('',#265,3.);
#120=CIRCLE('',#267,3.);
#121=VERTEX_POINT('',#339);
#122=VERTEX_POINT('',#341);
#123=VERTEX_POINT('',#344);
#124=VERTEX_POINT('',#348);
#125=VERTEX_POINT('',#349);
#126=VERTEX_POINT('',#351);
#127=VERTEX_POINT('',#353);
#128=VERTEX_POINT('',#357);
#129=VERTEX_POINT('',#359);
#130=VERTEX_POINT('',#363);
#131=VERTEX_POINT('',#365);
#132=VERTEX_POINT('',#369);
#133=VERTEX_POINT('',#371);
#134=VERTEX_POINT('',#375);
#135=VERTEX_POINT('',#377);
#136=VERTEX_POINT('',#385);
#137=VERTEX_POINT('',#387);
#138=VERTEX_POINT('',#390);
#139=VERTEX_POINT('',#394);
#140=VERTEX_POINT('',#397);
#141=EDGE_CURVE('',#121,#121,#113,.T.);
#142=EDGE_CURVE('',#122,#122,#114,.T.);
#143=EDGE_CURVE('',#123,#123,#115,.T.);
#144=EDGE_CURVE('',#124,#125,#15,.T.);
#145=EDGE_CURVE('',#124,#126,#16,.T.);
#146=EDGE_CURVE('',#126,#127,#17,.T.);
#147=EDGE_CURVE('',#125,#127,#18,.T.);
#148=EDGE_CURVE('',#128,#124,#19,.T.);
#149=EDGE_CURVE('',#128,#129,#20,.T.);
#150=EDGE_CURVE('',#129,#126,#21,.T.);
#151=EDGE_CURVE('',#130,#128,#22,.T.);
#152=EDGE_CURVE('',#130,#131,#23,.T.);
#153=EDGE_CURVE('',#131,#129,#24,.T.);
#154=EDGE_CURVE('',#132,#130,#25,.T.);
#155=EDGE_CURVE('',#132,#133,#26,.T.);
#156=EDGE_CURVE('',#133,#131,#27,.T.);
#157=EDGE_CURVE('',#134,#132,#28,.T.);
#158=EDGE_CURVE('',#134,#135,#29,.T.);
#159=EDGE_CURVE('',#135,#133,#30,.T.);
#160=EDGE_CURVE('',#125,#134,#31,.T.);
#161=EDGE_CURVE('',#127,#135,#32,.T.);
#162=EDGE_CURVE('',#136,#136,#116,.T.);
#163=EDGE_CURVE('',#137,#137,#117,.T.);
#164=EDGE_CURVE('',#138,#138,#118,.T.);
#165=EDGE_CURVE('',#139,#139,#119,.T.);
#166=EDGE_CURVE('',#140,#140,#120,.T.);
#167=ORIENTED_EDGE('',*,*,#141,.T.);
#168=ORIENTED_EDGE('',*,*,#142,.T.);
#169=ORIENTED_EDGE('',*,*,#143,.F.);
#170=ORIENTED_EDGE('',*,*,#141,.F.);
#171=ORIENTED_EDGE('',*,*,#142,.F.);
#172=ORIENTED_EDGE('',*,*,#144,.F.);
#173=ORIENTED_EDGE('',*,*,#145,.T.);
#174=ORIENTED_EDGE('',*,*,#146,.T.);
#175=ORIENTED_EDGE('',*,*,#147,.F.);
#176=ORIENTED_EDGE('',*,*,#148,.F.);
#177=ORIENTED_EDGE('',*,*,#149,.T.);
#178=ORIENTED_EDGE('',*,*,#150,.T.);
#179=ORIENTED_EDGE('',*,*,#145,.F.);
#180=ORIENTED_EDGE('',*,*,#151,.F.);
#181=ORIENTED_EDGE('',*,*,#152,.T.);
#182=ORIENTED_EDGE('',*,*,#153,.T.);
#183=ORIENTED_EDGE('',*,*,#149,.F.);
#184=ORIENTED_EDGE('',*,*,#154,.F.);
#185=ORIENTED_EDGE('',*,*,#155,.T.);
#186=ORIENTED_EDGE('',*,*,#156,.T.);
#187=ORIENTED_EDGE('',*,*,#152,.F.);
#188=ORIENTED_EDGE('',*,*,#157,.F.);
#189=ORIENTED_EDGE('',*,*,#158,.T.);
#190=ORIENTED_EDGE('',*,*,#159,.T.);
#191=ORIENTED_EDGE('',*,*,#155,.F.);
#192=ORIENTED_EDGE('',*,*,#160,.F.);
#193=ORIENTED_EDGE('',*,*,#147,.T.);
#194=ORIENTED_EDGE('',*,*,#161,.T.);
#195=ORIENTED_EDGE('',*,*,#158,.F.);
#196=ORIENTED_EDGE('',*,*,#161,.F.);
#197=ORIENTED_EDGE('',*,*,#146,.F.);
#198=ORIENTED_EDGE('',*,*,#150,.F.);
#199=ORIENTED_EDGE('',*,*,#153,.F.);
#200=ORIENTED_EDGE('',*,*,#156,.F.);
#201=ORIENTED_EDGE('',*,*,#159,.F.);
#202=ORIENTED_EDGE('',*,*,#162,.T.);
#203=ORIENTED_EDGE('',*,*,#163,.T.);
#204=ORIENTED_EDGE('',*,*,#164,.F.);
#205=ORIENTED_EDGE('',*,*,#162,.F.);
#206=ORIENTED_EDGE('',*,*,#163,.F.);
#207=ORIENTED_EDGE('',*,*,#144,.T.);
#208=ORIENTED_EDGE('',*,*,#160,.T.);
#209=ORIENTED_EDGE('',*,*,#157,.T.);
#210=ORIENTED_EDGE('',*,*,#154,.T.);
#211=ORIENTED_EDGE('',*,*,#151,.T.);
#212=ORIENTED_EDGE('',*,*,#148,.T.);
#213=ORIENTED_EDGE('',*,*,#164,.T.);
#214=ORIENTED_EDGE('',*,*,#165,.T.);
#215=ORIENTED_EDGE('',*,*,#165,.F.);
#216=ORIENTED_EDGE('',*,*,#166,.F.);
#217=ORIENTED_EDGE('',*,*,#166,.T.);
#218=ORIENTED_EDGE('',*,*,#143,.T.);
#219=CONICAL_SURFACE('',#245,2.25,45.);
#220=CONICAL_SURFACE('',#258,4.75,45.);
#221=ADVANCED_FACE('',(#73,#65),#219,.T.);
#222=ADVANCED_FACE('',(#74,#66),#62,.T.);
#223=ADVANCED_FACE('',(#75),#51,.F.);
#224=ADVANCED_FACE('',(#76),#52,.F.);
#225=ADVANCED_FACE('',(#77),#53,.F.);
#226=ADVANCED_FACE('',(#78),#54,.F.);
#227=ADVANCED_FACE('',(#79),#55,.F.);
#228=ADVANCED_FACE('',(#80),#56,.F.);
#229=ADVANCED_FACE('',(#81),#57,.F.);
#230=ADVANCED_FACE('',(#82),#58,.F.);
#231=ADVANCED_FACE('',(#83,#67),#220,.T.);
#232=ADVANCED_FACE('',(#84,#68),#63,.T.);
#233=ADVANCED_FACE('',(#85,#69),#59,.T.);
#234=ADVANCED_FACE('',(#86,#70),#60,.F.);
#235=ADVANCED_FACE('',(#87,#71),#64,.T.);
#236=ADVANCED_FACE('',(#88,#72),#61,.F.);
#237=CLOSED_SHELL('',(#221,#222,#223,#224,#225,#226,#227,#228,#229,#230,
#231,#232,#233,#234,#235,#236));
#238=DATE_TIME_ROLE('creation_date');
#239=APPLIED_DATE_AND_TIME_ASSIGNMENT(#240,#238,(#414));
#240=DATE_AND_TIME(#241,#242);
#241=CALENDAR_DATE(2021,10,2);
#242=LOCAL_TIME(15,47,0.,#243);
#243=COORDINATED_UNIVERSAL_TIME_OFFSET(0,0,.BEHIND.);
#244=AXIS2_PLACEMENT_3D('placement',#337,#269,#270);
#245=AXIS2_PLACEMENT_3D('',#338,#271,#272);
#246=AXIS2_PLACEMENT_3D('',#340,#273,#274);
#247=AXIS2_PLACEMENT_3D('',#342,#275,#276);
#248=AXIS2_PLACEMENT_3D('',#343,#277,#278);
#249=AXIS2_PLACEMENT_3D('',#345,#279,#280);
#250=AXIS2_PLACEMENT_3D('',#346,#281,#282);
#251=AXIS2_PLACEMENT_3D('',#347,#283,#284);
#252=AXIS2_PLACEMENT_3D('',#356,#289,#290);
#253=AXIS2_PLACEMENT_3D('',#362,#294,#295);
#254=AXIS2_PLACEMENT_3D('',#368,#299,#300);
#255=AXIS2_PLACEMENT_3D('',#374,#304,#305);
#256=AXIS2_PLACEMENT_3D('',#380,#309,#310);
#257=AXIS2_PLACEMENT_3D('',#383,#313,#314);
#258=AXIS2_PLACEMENT_3D('',#384,#315,#316);
#259=AXIS2_PLACEMENT_3D('',#386,#317,#318);
#260=AXIS2_PLACEMENT_3D('',#388,#319,#320);
#261=AXIS2_PLACEMENT_3D('',#389,#321,#322);
#262=AXIS2_PLACEMENT_3D('',#391,#323,#324);
#263=AXIS2_PLACEMENT_3D('',#392,#325,#326);
#264=AXIS2_PLACEMENT_3D('',#393,#327,#328);
#265=AXIS2_PLACEMENT_3D('',#395,#329,#330);
#266=AXIS2_PLACEMENT_3D('',#396,#331,#332);
#267=AXIS2_PLACEMENT_3D('',#398,#333,#334);
#268=AXIS2_PLACEMENT_3D('',#399,#335,#336);
#269=DIRECTION('axis',(0.,0.,1.));
#270=DIRECTION('refdir',(1.,0.,0.));
#271=DIRECTION('center_axis',(0.,0.,1.));
#272=DIRECTION('ref_axis',(1.,0.,0.));
#273=DIRECTION('center_axis',(0.,0.,-1.));
#274=DIRECTION('ref_axis',(1.,0.,0.));
#275=DIRECTION('center_axis',(0.,0.,1.));
#276=DIRECTION('ref_axis',(1.,0.,0.));
#277=DIRECTION('center_axis',(0.,0.,-1.));
#278=DIRECTION('ref_axis',(1.,0.,0.));
#279=DIRECTION('center_axis',(0.,0.,1.));
#280=DIRECTION('ref_axis',(1.,0.,0.));
#281=DIRECTION('center_axis',(0.,0.,1.));
#282=DIRECTION('ref_axis',(1.,0.,0.));
#283=DIRECTION('center_axis',(-5.76888805915069E-16,1.,0.));
#284=DIRECTION('ref_axis',(1.,5.77315972805081E-16,0.));
#285=DIRECTION('',(1.,5.76888805915069E-16,0.));
#286=DIRECTION('',(0.,0.,-1.));
#287=DIRECTION('',(1.,5.76888805915069E-16,0.));
#288=DIRECTION('',(0.,0.,-1.));
#289=DIRECTION('center_axis',(-0.866025403784439,0.5,0.));
#290=DIRECTION('ref_axis',(0.5,0.866025403784439,0.));
#291=DIRECTION('',(0.5,0.866025403784439,0.));
#292=DIRECTION('',(0.,0.,-1.));
#293=DIRECTION('',(0.5,0.866025403784439,0.));
#294=DIRECTION('center_axis',(-0.866025403784439,-0.5,0.));
#295=DIRECTION('ref_axis',(-0.5,0.866025403784439,0.));
#296=DIRECTION('',(-0.5,0.866025403784439,0.));
#297=DIRECTION('',(0.,0.,-1.));
#298=DIRECTION('',(-0.5,0.866025403784439,0.));
#299=DIRECTION('center_axis',(0.,-1.,0.));
#300=DIRECTION('ref_axis',(-1.,0.,0.));
#301=DIRECTION('',(-1.,0.,0.));
#302=DIRECTION('',(0.,0.,-1.));
#303=DIRECTION('',(-1.,0.,0.));
#304=DIRECTION('center_axis',(0.866025403784439,-0.5,0.));
#305=DIRECTION('ref_axis',(-0.5,-0.866025403784439,0.));
#306=DIRECTION('',(-0.5,-0.866025403784439,0.));
#307=DIRECTION('',(0.,0.,-1.));
#308=DIRECTION('',(-0.5,-0.866025403784439,0.));
#309=DIRECTION('center_axis',(0.866025403784439,0.5,0.));
#310=DIRECTION('ref_axis',(0.5,-0.866025403784439,0.));
#311=DIRECTION('',(0.5,-0.866025403784439,0.));
#312=DIRECTION('',(0.5,-0.866025403784439,0.));
#313=DIRECTION('center_axis',(0.,0.,-1.));
#314=DIRECTION('ref_axis',(-1.,0.,0.));
#315=DIRECTION('center_axis',(0.,0.,-1.));
#316=DIRECTION('ref_axis',(-1.,0.,0.));
#317=DIRECTION('center_axis',(0.,0.,1.));
#318=DIRECTION('ref_axis',(-1.,0.,0.));
#319=DIRECTION('center_axis',(0.,0.,-1.));
#320=DIRECTION('ref_axis',(-1.,0.,0.));
#321=DIRECTION('center_axis',(0.,0.,1.));
#322=DIRECTION('ref_axis',(-1.,0.,0.));
#323=DIRECTION('center_axis',(0.,0.,-1.));
#324=DIRECTION('ref_axis',(-1.,0.,0.));
#325=DIRECTION('center_axis',(0.,0.,1.));
#326=DIRECTION('ref_axis',(1.,0.,0.));
#327=DIRECTION('center_axis',(0.,0.,1.));
#328=DIRECTION('ref_axis',(1.,0.,0.));
#329=DIRECTION('center_axis',(0.,0.,1.));
#330=DIRECTION('ref_axis',(-1.,0.,0.));
#331=DIRECTION('center_axis',(0.,0.,1.));
#332=DIRECTION('ref_axis',(-1.,0.,0.));
#333=DIRECTION('center_axis',(0.,0.,-1.));
#334=DIRECTION('ref_axis',(-1.,0.,0.));
#335=DIRECTION('center_axis',(0.,0.,1.));
#336=DIRECTION('ref_axis',(1.,0.,0.));
#337=CARTESIAN_POINT('',(0.,0.,0.));
#338=CARTESIAN_POINT('Origin',(0.,0.,-4.75));
#339=CARTESIAN_POINT('',(-2.5,3.06161699786838E-16,-4.5));
#340=CARTESIAN_POINT('Origin',(0.,0.,-4.5));
#341=CARTESIAN_POINT('',(-2.,-2.44929359829471E-16,-5.));
#342=CARTESIAN_POINT('Origin',(0.,0.,-5.));
#343=CARTESIAN_POINT('Origin',(0.,0.,0.));
#344=CARTESIAN_POINT('',(-2.5,3.06161699786838E-16,0.));
#345=CARTESIAN_POINT('Origin',(0.,0.,0.));
#346=CARTESIAN_POINT('Origin',(1.18032060367666E-16,0.,-5.));
#347=CARTESIAN_POINT('Origin',(-1.44337567297407,2.5,16.6));
#348=CARTESIAN_POINT('',(-1.44337567297407,2.5,16.6));
#349=CARTESIAN_POINT('',(1.44337567297406,2.5,16.6));
#350=CARTESIAN_POINT('',(-0.721687836487036,2.5,16.6));
#351=CARTESIAN_POINT('',(-1.44337567297407,2.5,11.6));
#352=CARTESIAN_POINT('',(-1.44337567297407,2.5,16.6));
#353=CARTESIAN_POINT('',(1.44337567297406,2.5,11.6));
#354=CARTESIAN_POINT('',(-1.44337567297407,2.5,11.6));
#355=CARTESIAN_POINT('',(1.44337567297406,2.5,16.6));
#356=CARTESIAN_POINT('Origin',(-2.88675134594813,-1.21301105598293E-16,
16.6));
#357=CARTESIAN_POINT('',(-2.88675134594813,-1.21301105598293E-16,16.6));
#358=CARTESIAN_POINT('',(-2.52590742770462,0.625000000000001,16.6));
#359=CARTESIAN_POINT('',(-2.88675134594813,0.,11.6));
#360=CARTESIAN_POINT('',(-2.88675134594813,-1.21301105598293E-16,16.6));
#361=CARTESIAN_POINT('',(-2.88675134594813,-1.21301105598293E-16,11.6));
#362=CARTESIAN_POINT('Origin',(-1.44337567297407,-2.5,16.6));
#363=CARTESIAN_POINT('',(-1.44337567297407,-2.5,16.6));
#364=CARTESIAN_POINT('',(-1.80421959121758,-1.875,16.6));
#365=CARTESIAN_POINT('',(-1.44337567297407,-2.5,11.6));
#366=CARTESIAN_POINT('',(-1.44337567297407,-2.5,16.6));
#367=CARTESIAN_POINT('',(-1.44337567297407,-2.5,11.6));
#368=CARTESIAN_POINT('Origin',(1.44337567297406,-2.5,16.6));
#369=CARTESIAN_POINT('',(1.44337567297406,-2.5,16.6));
#370=CARTESIAN_POINT('',(0.721687836487029,-2.5,16.6));
#371=CARTESIAN_POINT('',(1.44337567297406,-2.5,11.6));
#372=CARTESIAN_POINT('',(1.44337567297406,-2.5,16.6));
#373=CARTESIAN_POINT('',(1.44337567297406,-2.5,11.6));
#374=CARTESIAN_POINT('Origin',(2.88675134594812,2.51555547181974E-16,16.6));
#375=CARTESIAN_POINT('',(2.88675134594812,2.51555547181974E-16,16.6));
#376=CARTESIAN_POINT('',(2.52590742770461,-0.624999999999999,16.6));
#377=CARTESIAN_POINT('',(2.88675134594812,0.,11.6));
#378=CARTESIAN_POINT('',(2.88675134594812,2.51555547181974E-16,16.6));
#379=CARTESIAN_POINT('',(2.88675134594812,2.51555547181974E-16,11.6));
#380=CARTESIAN_POINT('Origin',(1.44337567297406,2.5,16.6));
#381=CARTESIAN_POINT('',(1.80421959121758,1.875,16.6));
#382=CARTESIAN_POINT('',(1.44337567297406,2.5,11.6));
#383=CARTESIAN_POINT('Origin',(-4.9960036108132E-15,5.55111512312578E-16,
11.6));
#384=CARTESIAN_POINT('Origin',(0.,0.,16.35));
#385=CARTESIAN_POINT('',(5.,6.12323399573677E-16,16.1));
#386=CARTESIAN_POINT('Origin',(0.,0.,16.1));
#387=CARTESIAN_POINT('',(4.5,-5.51091059616309E-16,16.6));
#388=CARTESIAN_POINT('Origin',(0.,0.,16.6));
#389=CARTESIAN_POINT('Origin',(0.,0.,10.6));
#390=CARTESIAN_POINT('',(5.,6.12323399573677E-16,10.6));
#391=CARTESIAN_POINT('Origin',(0.,0.,10.6));
#392=CARTESIAN_POINT('Origin',(-2.36064120735332E-16,0.,16.6));
#393=CARTESIAN_POINT('Origin',(-2.36064120735332E-16,0.,10.6));
#394=CARTESIAN_POINT('',(3.,3.67394039744206E-16,10.6));
#395=CARTESIAN_POINT('Origin',(0.,0.,10.6));
#396=CARTESIAN_POINT('Origin',(0.,0.,0.));
#397=CARTESIAN_POINT('',(3.,3.67394039744206E-16,0.));
#398=CARTESIAN_POINT('Origin',(0.,0.,0.));
#399=CARTESIAN_POINT('Origin',(-3.39011454596783E-16,7.70988211545247E-17,
0.));
#400=UNCERTAINTY_MEASURE_WITH_UNIT(LENGTH_MEASURE(0.01),#404,
'DISTANCE_ACCURACY_VALUE',
'Maximum model space distance between geometric entities at asserted c
onnectivities');
#401=UNCERTAINTY_MEASURE_WITH_UNIT(LENGTH_MEASURE(1.E-6),#404,
'DISTANCE_ACCURACY_VALUE',
'Maximum model space distance between geometric entities at asserted c
onnectivities');
#402=(
GEOMETRIC_REPRESENTATION_CONTEXT(3)
GLOBAL_UNCERTAINTY_ASSIGNED_CONTEXT((#400))
GLOBAL_UNIT_ASSIGNED_CONTEXT((#404,#407,#405))
REPRESENTATION_CONTEXT('','3D')
);
#403=(
GEOMETRIC_REPRESENTATION_CONTEXT(3)
GLOBAL_UNCERTAINTY_ASSIGNED_CONTEXT((#401))
GLOBAL_UNIT_ASSIGNED_CONTEXT((#404,#407,#405))
REPRESENTATION_CONTEXT('','3D')
);
#404=(
LENGTH_UNIT()
NAMED_UNIT(*)
SI_UNIT(.MILLI.,.METRE.)
);
#405=(
NAMED_UNIT(*)
SI_UNIT($,.STERADIAN.)
SOLID_ANGLE_UNIT()
);
#406=DIMENSIONAL_EXPONENTS(0.,0.,0.,0.,0.,0.,0.);
#407=(
CONVERSION_BASED_UNIT('degree',#409)
NAMED_UNIT(#406)
PLANE_ANGLE_UNIT()
);
#408=(
NAMED_UNIT(*)
PLANE_ANGLE_UNIT()
SI_UNIT($,.RADIAN.)
);
#409=PLANE_ANGLE_MEASURE_WITH_UNIT(PLANE_ANGLE_MEASURE(0.01745329252),#408);
#410=SHAPE_DEFINITION_REPRESENTATION(#411,#412);
#411=PRODUCT_DEFINITION_SHAPE('',$,#414);
#412=SHAPE_REPRESENTATION('',(#244),#402);
#413=PRODUCT_DEFINITION_CONTEXT('part definition',#418,'design');
#414=PRODUCT_DEFINITION('chariot_mat_axe_court','chariot_mat_axe_court',
#415,#413);
#415=PRODUCT_DEFINITION_FORMATION('',$,#420);
#416=PRODUCT_RELATED_PRODUCT_CATEGORY('chariot_mat_axe_court',
'chariot_mat_axe_court',(#420));
#417=APPLICATION_PROTOCOL_DEFINITION('international standard',
'automotive_design',2009,#418);
#418=APPLICATION_CONTEXT(
'Core Data for Automotive Mechanical Design Process');
#419=PRODUCT_CONTEXT('part definition',#418,'mechanical');
#420=PRODUCT('chariot_mat_axe_court','chariot_mat_axe_court',$,(#419));
#421=PRESENTATION_STYLE_ASSIGNMENT((#422));
#422=SURFACE_STYLE_USAGE(.BOTH.,#423);
#423=SURFACE_SIDE_STYLE('',(#424));
#424=SURFACE_STYLE_FILL_AREA(#425);
#425=FILL_AREA_STYLE('',(#426));
#426=FILL_AREA_STYLE_COLOUR('',#427);
#427=COLOUR_RGB('',0.745098039215686,0.737254901960784,0.729411764705882);
ENDSEC;
END-ISO-10303-21;
