ISO-10303-21;
HEADER;
/* Generated by software containing ST-Developer
 * from STEP Tools, Inc. (www.steptools.com) 
 */

FILE_DESCRIPTION(
/* description */ (''),
/* implementation_level */ '2;1');

FILE_NAME(
/* name */ 'E:\\stephane_larhant\\step\\arbre2.stp',
/* time_stamp */ '2021-03-29T18:06:51+02:00',
/* author */ ('Utilisateur'),
/* organization */ (''),
/* preprocessor_version */ 'ST-DEVELOPER v16.5',
/* originating_system */ 'Autodesk Inventor 2017',
/* authorisation */ '');

FILE_SCHEMA (('AUTOMOTIVE_DESIGN { 1 0 10303 214 3 1 1 }'));
ENDSEC;

DATA;
#10=MECHANICAL_DESIGN_GEOMETRIC_PRESENTATION_REPRESENTATION('',(#13),#428);
#11=SHAPE_REPRESENTATION_RELATIONSHIP('SRR','None',#437,#12);
#12=ADVANCED_BREP_SHAPE_REPRESENTATION('',(#14),#427);
#13=STYLED_ITEM('',(#446),#14);
#14=MANIFOLD_SOLID_BREP('Solide1',#232);
#15=B_SPLINE_CURVE_WITH_KNOTS('',3,(#376,#377,#378,#379,#380,#381,#382,
#383,#384,#385,#386,#387,#388,#389,#390,#391,#392,#393),.UNSPECIFIED.,.F.,
 .F.,(4,2,2,2,2,2,2,2,4),(0.,0.0949845453059214,0.189969090611843,0.284909582012357,
0.37985007341287,0.474790564813384,0.569731056213898,0.664715601519819,
0.75970014682574),.UNSPECIFIED.);
#16=LINE('',#374,#25);
#17=LINE('',#394,#26);
#18=LINE('',#397,#27);
#19=LINE('',#399,#28);
#20=LINE('',#400,#29);
#21=LINE('',#403,#30);
#22=LINE('',#405,#31);
#23=LINE('',#406,#32);
#24=LINE('',#408,#33);
#25=VECTOR('',#302,10.);
#26=VECTOR('',#303,10.);
#27=VECTOR('',#306,10.);
#28=VECTOR('',#307,10.);
#29=VECTOR('',#308,10.);
#30=VECTOR('',#311,10.);
#31=VECTOR('',#312,10.);
#32=VECTOR('',#313,10.);
#33=VECTOR('',#316,10.);
#34=(
BOUNDED_CURVE()
B_SPLINE_CURVE(2,(#360,#361,#362),.UNSPECIFIED.,.F.,.F.)
B_SPLINE_CURVE_WITH_KNOTS((3,3),(2.37896514897586,2.57049991384319),
 .UNSPECIFIED.)
CURVE()
GEOMETRIC_REPRESENTATION_ITEM()
RATIONAL_B_SPLINE_CURVE((1.03148963707965,1.01701246221178,1.))
REPRESENTATION_ITEM('')
);
#35=(
BOUNDED_CURVE()
B_SPLINE_CURVE(2,(#366,#367,#368),.UNSPECIFIED.,.F.,.F.)
B_SPLINE_CURVE_WITH_KNOTS((3,3),(0.,0.191534764866003),.UNSPECIFIED.)
CURVE()
GEOMETRIC_REPRESENTATION_ITEM()
RATIONAL_B_SPLINE_CURVE((1.,1.01701246221168,1.03148963707949))
REPRESENTATION_ITEM('')
);
#36=PLANE('',#245);
#37=PLANE('',#246);
#38=PLANE('',#255);
#39=PLANE('',#256);
#40=PLANE('',#257);
#41=PLANE('',#260);
#42=PLANE('',#262);
#43=PLANE('',#266);
#44=CYLINDRICAL_SURFACE('',#243,6.);
#45=CYLINDRICAL_SURFACE('',#248,6.5);
#46=CYLINDRICAL_SURFACE('',#253,7.5);
#47=CYLINDRICAL_SURFACE('',#259,2.5);
#48=CYLINDRICAL_SURFACE('',#264,10.);
#49=CYLINDRICAL_SURFACE('',#269,2.4585);
#50=FACE_BOUND('',#78,.T.);
#51=FACE_BOUND('',#80,.T.);
#52=FACE_BOUND('',#83,.T.);
#53=FACE_BOUND('',#85,.T.);
#54=FACE_BOUND('',#88,.T.);
#55=FACE_BOUND('',#94,.T.);
#56=FACE_BOUND('',#96,.T.);
#57=FACE_BOUND('',#98,.T.);
#58=FACE_BOUND('',#100,.T.);
#59=FACE_BOUND('',#103,.T.);
#60=FACE_OUTER_BOUND('',#77,.T.);
#61=FACE_OUTER_BOUND('',#79,.T.);
#62=FACE_OUTER_BOUND('',#81,.T.);
#63=FACE_OUTER_BOUND('',#82,.T.);
#64=FACE_OUTER_BOUND('',#84,.T.);
#65=FACE_OUTER_BOUND('',#86,.T.);
#66=FACE_OUTER_BOUND('',#87,.T.);
#67=FACE_OUTER_BOUND('',#89,.T.);
#68=FACE_OUTER_BOUND('',#90,.T.);
#69=FACE_OUTER_BOUND('',#91,.T.);
#70=FACE_OUTER_BOUND('',#92,.T.);
#71=FACE_OUTER_BOUND('',#93,.T.);
#72=FACE_OUTER_BOUND('',#95,.T.);
#73=FACE_OUTER_BOUND('',#97,.T.);
#74=FACE_OUTER_BOUND('',#99,.T.);
#75=FACE_OUTER_BOUND('',#101,.T.);
#76=FACE_OUTER_BOUND('',#102,.T.);
#77=EDGE_LOOP('',(#162));
#78=EDGE_LOOP('',(#163));
#79=EDGE_LOOP('',(#164));
#80=EDGE_LOOP('',(#165));
#81=EDGE_LOOP('',(#166));
#82=EDGE_LOOP('',(#167));
#83=EDGE_LOOP('',(#168));
#84=EDGE_LOOP('',(#169));
#85=EDGE_LOOP('',(#170));
#86=EDGE_LOOP('',(#171,#172,#173,#174));
#87=EDGE_LOOP('',(#175));
#88=EDGE_LOOP('',(#176,#177,#178,#179));
#89=EDGE_LOOP('',(#180,#181,#182,#183,#184));
#90=EDGE_LOOP('',(#185,#186,#187,#188,#189));
#91=EDGE_LOOP('',(#190,#191,#192,#193));
#92=EDGE_LOOP('',(#194,#195,#196,#197));
#93=EDGE_LOOP('',(#198,#199,#200,#201));
#94=EDGE_LOOP('',(#202));
#95=EDGE_LOOP('',(#203));
#96=EDGE_LOOP('',(#204));
#97=EDGE_LOOP('',(#205));
#98=EDGE_LOOP('',(#206));
#99=EDGE_LOOP('',(#207));
#100=EDGE_LOOP('',(#208));
#101=EDGE_LOOP('',(#209));
#102=EDGE_LOOP('',(#210));
#103=EDGE_LOOP('',(#211));
#104=CIRCLE('',#241,6.);
#105=CIRCLE('',#242,5.3);
#106=CIRCLE('',#244,6.);
#107=CIRCLE('',#247,6.5);
#108=CIRCLE('',#249,6.5);
#109=CIRCLE('',#251,6.8);
#110=CIRCLE('',#252,7.5);
#111=CIRCLE('',#254,7.5);
#112=CIRCLE('',#258,2.5);
#113=CIRCLE('',#261,2.4585);
#114=CIRCLE('',#263,10.);
#115=CIRCLE('',#265,10.);
#116=CIRCLE('',#268,2.4585);
#117=VERTEX_POINT('',#343);
#118=VERTEX_POINT('',#345);
#119=VERTEX_POINT('',#348);
#120=VERTEX_POINT('',#352);
#121=VERTEX_POINT('',#355);
#122=VERTEX_POINT('',#358);
#123=VERTEX_POINT('',#359);
#124=VERTEX_POINT('',#363);
#125=VERTEX_POINT('',#365);
#126=VERTEX_POINT('',#371);
#127=VERTEX_POINT('',#373);
#128=VERTEX_POINT('',#375);
#129=VERTEX_POINT('',#396);
#130=VERTEX_POINT('',#398);
#131=VERTEX_POINT('',#402);
#132=VERTEX_POINT('',#404);
#133=VERTEX_POINT('',#412);
#134=VERTEX_POINT('',#415);
#135=VERTEX_POINT('',#418);
#136=VERTEX_POINT('',#422);
#137=EDGE_CURVE('',#117,#117,#104,.T.);
#138=EDGE_CURVE('',#118,#118,#105,.T.);
#139=EDGE_CURVE('',#119,#119,#106,.T.);
#140=EDGE_CURVE('',#120,#120,#107,.T.);
#141=EDGE_CURVE('',#121,#121,#108,.T.);
#142=EDGE_CURVE('',#122,#123,#34,.T.);
#143=EDGE_CURVE('',#123,#124,#109,.T.);
#144=EDGE_CURVE('',#124,#125,#35,.T.);
#145=EDGE_CURVE('',#125,#122,#110,.T.);
#146=EDGE_CURVE('',#126,#126,#111,.T.);
#147=EDGE_CURVE('',#125,#127,#16,.T.);
#148=EDGE_CURVE('',#127,#128,#15,.T.);
#149=EDGE_CURVE('',#128,#122,#17,.T.);
#150=EDGE_CURVE('',#129,#124,#18,.T.);
#151=EDGE_CURVE('',#130,#129,#19,.T.);
#152=EDGE_CURVE('',#130,#127,#20,.T.);
#153=EDGE_CURVE('',#131,#128,#21,.T.);
#154=EDGE_CURVE('',#132,#131,#22,.T.);
#155=EDGE_CURVE('',#123,#132,#23,.T.);
#156=EDGE_CURVE('',#132,#129,#24,.T.);
#157=EDGE_CURVE('',#131,#130,#112,.T.);
#158=EDGE_CURVE('',#133,#133,#113,.T.);
#159=EDGE_CURVE('',#134,#134,#114,.T.);
#160=EDGE_CURVE('',#135,#135,#115,.T.);
#161=EDGE_CURVE('',#136,#136,#116,.T.);
#162=ORIENTED_EDGE('',*,*,#137,.T.);
#163=ORIENTED_EDGE('',*,*,#138,.T.);
#164=ORIENTED_EDGE('',*,*,#139,.T.);
#165=ORIENTED_EDGE('',*,*,#137,.F.);
#166=ORIENTED_EDGE('',*,*,#138,.F.);
#167=ORIENTED_EDGE('',*,*,#140,.F.);
#168=ORIENTED_EDGE('',*,*,#139,.F.);
#169=ORIENTED_EDGE('',*,*,#140,.T.);
#170=ORIENTED_EDGE('',*,*,#141,.F.);
#171=ORIENTED_EDGE('',*,*,#142,.T.);
#172=ORIENTED_EDGE('',*,*,#143,.T.);
#173=ORIENTED_EDGE('',*,*,#144,.T.);
#174=ORIENTED_EDGE('',*,*,#145,.T.);
#175=ORIENTED_EDGE('',*,*,#146,.F.);
#176=ORIENTED_EDGE('',*,*,#145,.F.);
#177=ORIENTED_EDGE('',*,*,#147,.T.);
#178=ORIENTED_EDGE('',*,*,#148,.T.);
#179=ORIENTED_EDGE('',*,*,#149,.T.);
#180=ORIENTED_EDGE('',*,*,#144,.F.);
#181=ORIENTED_EDGE('',*,*,#150,.F.);
#182=ORIENTED_EDGE('',*,*,#151,.F.);
#183=ORIENTED_EDGE('',*,*,#152,.T.);
#184=ORIENTED_EDGE('',*,*,#147,.F.);
#185=ORIENTED_EDGE('',*,*,#142,.F.);
#186=ORIENTED_EDGE('',*,*,#149,.F.);
#187=ORIENTED_EDGE('',*,*,#153,.F.);
#188=ORIENTED_EDGE('',*,*,#154,.F.);
#189=ORIENTED_EDGE('',*,*,#155,.F.);
#190=ORIENTED_EDGE('',*,*,#156,.F.);
#191=ORIENTED_EDGE('',*,*,#154,.T.);
#192=ORIENTED_EDGE('',*,*,#157,.T.);
#193=ORIENTED_EDGE('',*,*,#151,.T.);
#194=ORIENTED_EDGE('',*,*,#148,.F.);
#195=ORIENTED_EDGE('',*,*,#152,.F.);
#196=ORIENTED_EDGE('',*,*,#157,.F.);
#197=ORIENTED_EDGE('',*,*,#153,.T.);
#198=ORIENTED_EDGE('',*,*,#143,.F.);
#199=ORIENTED_EDGE('',*,*,#155,.T.);
#200=ORIENTED_EDGE('',*,*,#156,.T.);
#201=ORIENTED_EDGE('',*,*,#150,.T.);
#202=ORIENTED_EDGE('',*,*,#158,.T.);
#203=ORIENTED_EDGE('',*,*,#159,.T.);
#204=ORIENTED_EDGE('',*,*,#146,.T.);
#205=ORIENTED_EDGE('',*,*,#160,.F.);
#206=ORIENTED_EDGE('',*,*,#159,.F.);
#207=ORIENTED_EDGE('',*,*,#160,.T.);
#208=ORIENTED_EDGE('',*,*,#141,.T.);
#209=ORIENTED_EDGE('',*,*,#161,.T.);
#210=ORIENTED_EDGE('',*,*,#158,.F.);
#211=ORIENTED_EDGE('',*,*,#161,.F.);
#212=CONICAL_SURFACE('',#240,5.65,44.9999999999999);
#213=CONICAL_SURFACE('',#250,7.15,44.9999999999999);
#214=CONICAL_SURFACE('',#267,1.22925,59.);
#215=ADVANCED_FACE('',(#60,#50),#212,.T.);
#216=ADVANCED_FACE('',(#61,#51),#44,.T.);
#217=ADVANCED_FACE('',(#62),#36,.F.);
#218=ADVANCED_FACE('',(#63,#52),#37,.F.);
#219=ADVANCED_FACE('',(#64,#53),#45,.T.);
#220=ADVANCED_FACE('',(#65),#213,.T.);
#221=ADVANCED_FACE('',(#66,#54),#46,.T.);
#222=ADVANCED_FACE('',(#67),#38,.F.);
#223=ADVANCED_FACE('',(#68),#39,.F.);
#224=ADVANCED_FACE('',(#69),#40,.T.);
#225=ADVANCED_FACE('',(#70),#47,.F.);
#226=ADVANCED_FACE('',(#71,#55),#41,.T.);
#227=ADVANCED_FACE('',(#72,#56),#42,.T.);
#228=ADVANCED_FACE('',(#73,#57),#48,.T.);
#229=ADVANCED_FACE('',(#74,#58),#43,.F.);
#230=ADVANCED_FACE('',(#75),#214,.F.);
#231=ADVANCED_FACE('',(#76,#59),#49,.F.);
#232=CLOSED_SHELL('',(#215,#216,#217,#218,#219,#220,#221,#222,#223,#224,
#225,#226,#227,#228,#229,#230,#231));
#233=DATE_TIME_ROLE('creation_date');
#234=APPLIED_DATE_AND_TIME_ASSIGNMENT(#235,#233,(#439));
#235=DATE_AND_TIME(#236,#237);
#236=CALENDAR_DATE(2021,3,2);
#237=LOCAL_TIME(10,20,16.,#238);
#238=COORDINATED_UNIVERSAL_TIME_OFFSET(0,0,.BEHIND.);
#239=AXIS2_PLACEMENT_3D('placement',#341,#270,#271);
#240=AXIS2_PLACEMENT_3D('',#342,#272,#273);
#241=AXIS2_PLACEMENT_3D('',#344,#274,#275);
#242=AXIS2_PLACEMENT_3D('',#346,#276,#277);
#243=AXIS2_PLACEMENT_3D('',#347,#278,#279);
#244=AXIS2_PLACEMENT_3D('',#349,#280,#281);
#245=AXIS2_PLACEMENT_3D('',#350,#282,#283);
#246=AXIS2_PLACEMENT_3D('',#351,#284,#285);
#247=AXIS2_PLACEMENT_3D('',#353,#286,#287);
#248=AXIS2_PLACEMENT_3D('',#354,#288,#289);
#249=AXIS2_PLACEMENT_3D('',#356,#290,#291);
#250=AXIS2_PLACEMENT_3D('',#357,#292,#293);
#251=AXIS2_PLACEMENT_3D('',#364,#294,#295);
#252=AXIS2_PLACEMENT_3D('',#369,#296,#297);
#253=AXIS2_PLACEMENT_3D('',#370,#298,#299);
#254=AXIS2_PLACEMENT_3D('',#372,#300,#301);
#255=AXIS2_PLACEMENT_3D('',#395,#304,#305);
#256=AXIS2_PLACEMENT_3D('',#401,#309,#310);
#257=AXIS2_PLACEMENT_3D('',#407,#314,#315);
#258=AXIS2_PLACEMENT_3D('',#409,#317,#318);
#259=AXIS2_PLACEMENT_3D('',#410,#319,#320);
#260=AXIS2_PLACEMENT_3D('',#411,#321,#322);
#261=AXIS2_PLACEMENT_3D('',#413,#323,#324);
#262=AXIS2_PLACEMENT_3D('',#414,#325,#326);
#263=AXIS2_PLACEMENT_3D('',#416,#327,#328);
#264=AXIS2_PLACEMENT_3D('',#417,#329,#330);
#265=AXIS2_PLACEMENT_3D('',#419,#331,#332);
#266=AXIS2_PLACEMENT_3D('',#420,#333,#334);
#267=AXIS2_PLACEMENT_3D('',#421,#335,#336);
#268=AXIS2_PLACEMENT_3D('',#423,#337,#338);
#269=AXIS2_PLACEMENT_3D('',#424,#339,#340);
#270=DIRECTION('axis',(0.,0.,1.));
#271=DIRECTION('refdir',(1.,0.,0.));
#272=DIRECTION('center_axis',(0.,0.,1.));
#273=DIRECTION('ref_axis',(1.,0.,0.));
#274=DIRECTION('center_axis',(0.,0.,-1.));
#275=DIRECTION('ref_axis',(1.,0.,0.));
#276=DIRECTION('center_axis',(0.,0.,1.));
#277=DIRECTION('ref_axis',(1.,0.,0.));
#278=DIRECTION('center_axis',(0.,0.,1.));
#279=DIRECTION('ref_axis',(1.,0.,0.));
#280=DIRECTION('center_axis',(0.,0.,-1.));
#281=DIRECTION('ref_axis',(1.,0.,0.));
#282=DIRECTION('center_axis',(0.,0.,1.));
#283=DIRECTION('ref_axis',(1.,0.,0.));
#284=DIRECTION('center_axis',(0.,0.,1.));
#285=DIRECTION('ref_axis',(1.,0.,0.));
#286=DIRECTION('center_axis',(0.,0.,1.));
#287=DIRECTION('ref_axis',(1.,0.,0.));
#288=DIRECTION('center_axis',(0.,0.,-1.));
#289=DIRECTION('ref_axis',(1.,0.,0.));
#290=DIRECTION('center_axis',(0.,0.,1.));
#291=DIRECTION('ref_axis',(1.,0.,0.));
#292=DIRECTION('center_axis',(0.,0.,-1.));
#293=DIRECTION('ref_axis',(-1.,0.,0.));
#294=DIRECTION('center_axis',(0.,0.,-1.));
#295=DIRECTION('ref_axis',(-1.,0.,0.));
#296=DIRECTION('center_axis',(0.,0.,1.));
#297=DIRECTION('ref_axis',(-1.,0.,0.));
#298=DIRECTION('center_axis',(0.,0.,1.));
#299=DIRECTION('ref_axis',(-1.,0.,0.));
#300=DIRECTION('center_axis',(0.,0.,-1.));
#301=DIRECTION('ref_axis',(-1.,0.,0.));
#302=DIRECTION('',(0.,0.,-1.));
#303=DIRECTION('',(0.,0.,1.));
#304=DIRECTION('center_axis',(0.,1.,9.25185853854297E-17));
#305=DIRECTION('ref_axis',(0.,-8.88178419700125E-17,1.));
#306=DIRECTION('',(1.,0.,0.));
#307=DIRECTION('',(0.,-9.25185853854297E-17,1.));
#308=DIRECTION('',(1.,0.,0.));
#309=DIRECTION('center_axis',(0.,-1.,6.16790569236198E-17));
#310=DIRECTION('ref_axis',(0.,-4.44089209850063E-17,-1.));
#311=DIRECTION('',(1.,0.,0.));
#312=DIRECTION('',(0.,-6.16790569236198E-17,-1.));
#313=DIRECTION('',(-1.,0.,0.));
#314=DIRECTION('center_axis',(1.,0.,0.));
#315=DIRECTION('ref_axis',(0.,0.,-1.));
#316=DIRECTION('',(0.,1.,0.));
#317=DIRECTION('center_axis',(1.,0.,0.));
#318=DIRECTION('ref_axis',(0.,-1.,0.));
#319=DIRECTION('center_axis',(1.,0.,0.));
#320=DIRECTION('ref_axis',(0.,-1.,0.));
#321=DIRECTION('center_axis',(0.,0.,1.));
#322=DIRECTION('ref_axis',(1.,0.,0.));
#323=DIRECTION('center_axis',(0.,0.,-1.));
#324=DIRECTION('ref_axis',(1.,0.,0.));
#325=DIRECTION('center_axis',(0.,0.,1.));
#326=DIRECTION('ref_axis',(1.,0.,0.));
#327=DIRECTION('center_axis',(0.,0.,1.));
#328=DIRECTION('ref_axis',(1.,0.,0.));
#329=DIRECTION('center_axis',(0.,0.,-1.));
#330=DIRECTION('ref_axis',(1.,0.,0.));
#331=DIRECTION('center_axis',(0.,0.,-1.));
#332=DIRECTION('ref_axis',(1.,0.,0.));
#333=DIRECTION('center_axis',(0.,0.,1.));
#334=DIRECTION('ref_axis',(1.,0.,0.));
#335=DIRECTION('center_axis',(0.,0.,1.));
#336=DIRECTION('ref_axis',(1.,0.,0.));
#337=DIRECTION('center_axis',(0.,0.,1.));
#338=DIRECTION('ref_axis',(1.,0.,0.));
#339=DIRECTION('center_axis',(0.,0.,1.));
#340=DIRECTION('ref_axis',(1.,0.,0.));
#341=CARTESIAN_POINT('',(0.,0.,0.));
#342=CARTESIAN_POINT('Origin',(0.,0.,-64.65));
#343=CARTESIAN_POINT('',(-6.,7.34788079488412E-16,-64.3));
#344=CARTESIAN_POINT('Origin',(0.,0.,-64.3));
#345=CARTESIAN_POINT('',(-5.3,-6.49062803548097E-16,-65.));
#346=CARTESIAN_POINT('Origin',(0.,0.,-65.));
#347=CARTESIAN_POINT('Origin',(0.,0.,-65.));
#348=CARTESIAN_POINT('',(-6.,7.34788079488412E-16,-49.));
#349=CARTESIAN_POINT('Origin',(0.,0.,-49.));
#350=CARTESIAN_POINT('Origin',(6.6335034953815E-17,0.,-65.));
#351=CARTESIAN_POINT('Origin',(6.6335034953815E-17,0.,-49.));
#352=CARTESIAN_POINT('',(-6.5,7.9602041944578E-16,-49.));
#353=CARTESIAN_POINT('Origin',(0.,0.,-49.));
#354=CARTESIAN_POINT('Origin',(0.,0.,-40.));
#355=CARTESIAN_POINT('',(-6.5,7.9602041944578E-16,-40.));
#356=CARTESIAN_POINT('Origin',(0.,0.,-40.));
#357=CARTESIAN_POINT('Origin',(0.,0.,67.45));
#358=CARTESIAN_POINT('',(7.07106781186547,-2.5,67.1));
#359=CARTESIAN_POINT('',(6.32376470150495,-2.49999999999999,67.8));
#360=CARTESIAN_POINT('Ctrl Pts',(7.07106781186548,-2.5,67.1));
#361=CARTESIAN_POINT('Ctrl Pts',(6.67912562111393,-2.5,67.4695266412181));
#362=CARTESIAN_POINT('Ctrl Pts',(6.32376470150495,-2.49999999999999,67.8));
#363=CARTESIAN_POINT('',(6.32376470150495,2.50000000000001,67.8));
#364=CARTESIAN_POINT('Origin',(0.,0.,67.8));
#365=CARTESIAN_POINT('',(7.07106781186547,2.50000000000001,67.1));
#366=CARTESIAN_POINT('Ctrl Pts',(6.32376470150495,2.5,67.8));
#367=CARTESIAN_POINT('Ctrl Pts',(6.67912562111689,2.50000000000001,67.4695266412152));
#368=CARTESIAN_POINT('Ctrl Pts',(7.07106781186547,2.50000000000001,67.1));
#369=CARTESIAN_POINT('Origin',(0.,0.,67.1));
#370=CARTESIAN_POINT('Origin',(0.,0.,0.));
#371=CARTESIAN_POINT('',(7.5,9.18485099360515E-16,0.));
#372=CARTESIAN_POINT('Origin',(0.,0.,0.));
#373=CARTESIAN_POINT('',(7.07106781186547,2.50000000000001,49.8));
#374=CARTESIAN_POINT('',(7.07106781186547,2.50000000000001,0.));
#375=CARTESIAN_POINT('',(7.07106781186548,-2.5,49.8));
#376=CARTESIAN_POINT('Ctrl Pts',(7.07106781186547,2.50000000000001,49.8));
#377=CARTESIAN_POINT('Ctrl Pts',(7.07106781186547,2.50000000000001,49.4833848489803));
#378=CARTESIAN_POINT('Ctrl Pts',(7.09456695717813,2.43622584817204,49.1474950663412));
#379=CARTESIAN_POINT('Ctrl Pts',(7.17732603190582,2.18038226906589,48.5323670501058));
#380=CARTESIAN_POINT('Ctrl Pts',(7.23517214015746,1.98842619999926,48.2528922940665));
#381=CARTESIAN_POINT('Ctrl Pts',(7.34218277539206,1.54721004786253,47.8116761419298));
#382=CARTESIAN_POINT('Ctrl Pts',(7.3985923882585,1.26769452989352,47.6196412847085));
#383=CARTESIAN_POINT('Ctrl Pts',(7.4780059485864,0.65241534305215,47.3637389479924));
#384=CARTESIAN_POINT('Ctrl Pts',(7.5,0.316468304668384,47.3));
#385=CARTESIAN_POINT('Ctrl Pts',(7.5,-0.316468304668373,47.3));
#386=CARTESIAN_POINT('Ctrl Pts',(7.4780059485864,-0.652415343052139,47.3637389479924));
#387=CARTESIAN_POINT('Ctrl Pts',(7.3985923882585,-1.26769452989351,47.6196412847085));
#388=CARTESIAN_POINT('Ctrl Pts',(7.34218277539207,-1.54721004786252,47.8116761419298));
#389=CARTESIAN_POINT('Ctrl Pts',(7.23517214015746,-1.98842619999925,48.2528922940665));
#390=CARTESIAN_POINT('Ctrl Pts',(7.17732603190583,-2.18038226906587,48.5323670501058));
#391=CARTESIAN_POINT('Ctrl Pts',(7.09456695717814,-2.43622584817203,49.1474950663412));
#392=CARTESIAN_POINT('Ctrl Pts',(7.07106781186548,-2.49999999999999,49.4833848489803));
#393=CARTESIAN_POINT('Ctrl Pts',(7.07106781186548,-2.49999999999999,49.8));
#394=CARTESIAN_POINT('',(7.07106781186547,-2.5,0.));
#395=CARTESIAN_POINT('Origin',(5.5,2.50000000000001,49.8));
#396=CARTESIAN_POINT('',(5.5,2.5,67.8));
#397=CARTESIAN_POINT('',(5.5,2.50000000000001,67.8));
#398=CARTESIAN_POINT('',(5.5,2.50000000000001,49.8));
#399=CARTESIAN_POINT('',(5.5,2.50000000000001,49.8));
#400=CARTESIAN_POINT('',(5.5,2.50000000000001,49.8));
#401=CARTESIAN_POINT('Origin',(5.5,-2.49999999999999,67.8));
#402=CARTESIAN_POINT('',(5.5,-2.5,49.8));
#403=CARTESIAN_POINT('',(5.5,-2.5,49.8));
#404=CARTESIAN_POINT('',(5.5,-2.49999999999999,67.8));
#405=CARTESIAN_POINT('',(5.5,-2.49999999999999,67.8));
#406=CARTESIAN_POINT('',(2.75,-2.49999999999999,67.8));
#407=CARTESIAN_POINT('Origin',(5.5,5.37944370937908E-15,58.8));
#408=CARTESIAN_POINT('',(5.5,2.68972185468954E-15,67.8));
#409=CARTESIAN_POINT('Origin',(5.5,5.55111512312578E-15,49.8));
#410=CARTESIAN_POINT('Origin',(5.5,5.55111512312578E-15,49.8));
#411=CARTESIAN_POINT('Origin',(-3.23256652641189E-16,0.,67.8));
#412=CARTESIAN_POINT('',(2.4585,0.,67.8));
#413=CARTESIAN_POINT('Origin',(0.,0.,67.8));
#414=CARTESIAN_POINT('Origin',(4.72128241470665E-16,0.,0.));
#415=CARTESIAN_POINT('',(-10.,1.22464679914735E-15,0.));
#416=CARTESIAN_POINT('Origin',(0.,0.,0.));
#417=CARTESIAN_POINT('Origin',(0.,0.,0.));
#418=CARTESIAN_POINT('',(-10.,1.22464679914735E-15,-40.));
#419=CARTESIAN_POINT('Origin',(0.,0.,-40.));
#420=CARTESIAN_POINT('Origin',(4.72128241470665E-16,0.,-40.));
#421=CARTESIAN_POINT('Origin',(0.,0.,49.9613920840604));
#422=CARTESIAN_POINT('',(2.4585,0.,50.7));
#423=CARTESIAN_POINT('Origin',(0.,0.,50.7));
#424=CARTESIAN_POINT('Origin',(0.,0.,59.25));
#425=UNCERTAINTY_MEASURE_WITH_UNIT(LENGTH_MEASURE(0.01),#429,
'DISTANCE_ACCURACY_VALUE',
'Maximum model space distance between geometric entities at asserted c
onnectivities');
#426=UNCERTAINTY_MEASURE_WITH_UNIT(LENGTH_MEASURE(1.E-6),#429,
'DISTANCE_ACCURACY_VALUE',
'Maximum model space distance between geometric entities at asserted c
onnectivities');
#427=(
GEOMETRIC_REPRESENTATION_CONTEXT(3)
GLOBAL_UNCERTAINTY_ASSIGNED_CONTEXT((#425))
GLOBAL_UNIT_ASSIGNED_CONTEXT((#429,#432,#430))
REPRESENTATION_CONTEXT('','3D')
);
#428=(
GEOMETRIC_REPRESENTATION_CONTEXT(3)
GLOBAL_UNCERTAINTY_ASSIGNED_CONTEXT((#426))
GLOBAL_UNIT_ASSIGNED_CONTEXT((#429,#432,#430))
REPRESENTATION_CONTEXT('','3D')
);
#429=(
LENGTH_UNIT()
NAMED_UNIT(*)
SI_UNIT(.MILLI.,.METRE.)
);
#430=(
NAMED_UNIT(*)
SI_UNIT($,.STERADIAN.)
SOLID_ANGLE_UNIT()
);
#431=DIMENSIONAL_EXPONENTS(0.,0.,0.,0.,0.,0.,0.);
#432=(
CONVERSION_BASED_UNIT('degree',#434)
NAMED_UNIT(#431)
PLANE_ANGLE_UNIT()
);
#433=(
NAMED_UNIT(*)
PLANE_ANGLE_UNIT()
SI_UNIT($,.RADIAN.)
);
#434=PLANE_ANGLE_MEASURE_WITH_UNIT(PLANE_ANGLE_MEASURE(0.01745329252),#433);
#435=SHAPE_DEFINITION_REPRESENTATION(#436,#437);
#436=PRODUCT_DEFINITION_SHAPE('',$,#439);
#437=SHAPE_REPRESENTATION('',(#239),#427);
#438=PRODUCT_DEFINITION_CONTEXT('part definition',#443,'design');
#439=PRODUCT_DEFINITION('arbre2','arbre2',#440,#438);
#440=PRODUCT_DEFINITION_FORMATION('',$,#445);
#441=PRODUCT_RELATED_PRODUCT_CATEGORY('arbre2','arbre2',(#445));
#442=APPLICATION_PROTOCOL_DEFINITION('international standard',
'automotive_design',2009,#443);
#443=APPLICATION_CONTEXT(
'Core Data for Automotive Mechanical Design Process');
#444=PRODUCT_CONTEXT('part definition',#443,'mechanical');
#445=PRODUCT('arbre2','arbre2',$,(#444));
#446=PRESENTATION_STYLE_ASSIGNMENT((#447));
#447=SURFACE_STYLE_USAGE(.BOTH.,#448);
#448=SURFACE_SIDE_STYLE('',(#449));
#449=SURFACE_STYLE_FILL_AREA(#450);
#450=FILL_AREA_STYLE('',(#451));
#451=FILL_AREA_STYLE_COLOUR('',#452);
#452=COLOUR_RGB('',0.749019607843137,0.749019607843137,0.749019607843137);
ENDSEC;
END-ISO-10303-21;
