ISO-10303-21;
HEADER;
/* Generated by software containing ST-Developer
 * from STEP Tools, Inc. (www.steptools.com) 
 */

FILE_DESCRIPTION(
/* description */ (''),
/* implementation_level */ '2;1');

FILE_NAME(
/* name */ 'E:\\stephane_larhant\\step\\vis_epaul\X\E9e8_m6.stp',
/* time_stamp */ '2021-03-29T18:15:27+02:00',
/* author */ ('Utilisateur'),
/* organization */ (''),
/* preprocessor_version */ 'ST-DEVELOPER v16.5',
/* originating_system */ 'Autodesk Inventor 2017',
/* authorisation */ '');

FILE_SCHEMA (('AUTOMOTIVE_DESIGN { 1 0 10303 214 3 1 1 }'));
ENDSEC;

DATA;
#10=MECHANICAL_DESIGN_GEOMETRIC_PRESENTATION_REPRESENTATION('',(#13),#403);
#11=SHAPE_REPRESENTATION_RELATIONSHIP('SRR','None',#412,#12);
#12=ADVANCED_BREP_SHAPE_REPRESENTATION('',(#14),#402);
#13=STYLED_ITEM('',(#421),#14);
#14=MANIFOLD_SOLID_BREP('Solide1',#237);
#15=LINE('',#358,#33);
#16=LINE('',#360,#34);
#17=LINE('',#362,#35);
#18=LINE('',#364,#36);
#19=LINE('',#366,#37);
#20=LINE('',#367,#38);
#21=LINE('',#370,#39);
#22=LINE('',#372,#40);
#23=LINE('',#373,#41);
#24=LINE('',#376,#42);
#25=LINE('',#377,#43);
#26=LINE('',#380,#44);
#27=LINE('',#381,#45);
#28=LINE('',#384,#46);
#29=LINE('',#385,#47);
#30=LINE('',#388,#48);
#31=LINE('',#389,#49);
#32=LINE('',#391,#50);
#33=VECTOR('',#295,10.);
#34=VECTOR('',#296,10.);
#35=VECTOR('',#297,10.);
#36=VECTOR('',#298,10.);
#37=VECTOR('',#299,10.);
#38=VECTOR('',#300,10.);
#39=VECTOR('',#303,10.);
#40=VECTOR('',#304,10.);
#41=VECTOR('',#305,10.);
#42=VECTOR('',#308,10.);
#43=VECTOR('',#309,10.);
#44=VECTOR('',#312,10.);
#45=VECTOR('',#313,10.);
#46=VECTOR('',#316,10.);
#47=VECTOR('',#317,10.);
#48=VECTOR('',#320,10.);
#49=VECTOR('',#321,10.);
#50=VECTOR('',#324,10.);
#51=TOROIDAL_SURFACE('',#251,7.5,0.5);
#52=PLANE('',#250);
#53=PLANE('',#256);
#54=PLANE('',#257);
#55=PLANE('',#258);
#56=PLANE('',#259);
#57=PLANE('',#260);
#58=PLANE('',#261);
#59=PLANE('',#262);
#60=PLANE('',#263);
#61=PLANE('',#264);
#62=PLANE('',#268);
#63=CYLINDRICAL_SURFACE('',#248,3.);
#64=CYLINDRICAL_SURFACE('',#254,8.);
#65=CYLINDRICAL_SURFACE('',#266,5.);
#66=FACE_BOUND('',#91,.T.);
#67=FACE_BOUND('',#93,.T.);
#68=FACE_BOUND('',#96,.T.);
#69=FACE_BOUND('',#98,.T.);
#70=FACE_BOUND('',#100,.T.);
#71=FACE_BOUND('',#109,.T.);
#72=FACE_BOUND('',#111,.T.);
#73=FACE_BOUND('',#113,.T.);
#74=FACE_OUTER_BOUND('',#90,.T.);
#75=FACE_OUTER_BOUND('',#92,.T.);
#76=FACE_OUTER_BOUND('',#94,.T.);
#77=FACE_OUTER_BOUND('',#95,.T.);
#78=FACE_OUTER_BOUND('',#97,.T.);
#79=FACE_OUTER_BOUND('',#99,.T.);
#80=FACE_OUTER_BOUND('',#101,.T.);
#81=FACE_OUTER_BOUND('',#102,.T.);
#82=FACE_OUTER_BOUND('',#103,.T.);
#83=FACE_OUTER_BOUND('',#104,.T.);
#84=FACE_OUTER_BOUND('',#105,.T.);
#85=FACE_OUTER_BOUND('',#106,.T.);
#86=FACE_OUTER_BOUND('',#107,.T.);
#87=FACE_OUTER_BOUND('',#108,.T.);
#88=FACE_OUTER_BOUND('',#110,.T.);
#89=FACE_OUTER_BOUND('',#112,.T.);
#90=EDGE_LOOP('',(#168));
#91=EDGE_LOOP('',(#169));
#92=EDGE_LOOP('',(#170));
#93=EDGE_LOOP('',(#171));
#94=EDGE_LOOP('',(#172));
#95=EDGE_LOOP('',(#173));
#96=EDGE_LOOP('',(#174));
#97=EDGE_LOOP('',(#175));
#98=EDGE_LOOP('',(#176));
#99=EDGE_LOOP('',(#177));
#100=EDGE_LOOP('',(#178,#179,#180,#181,#182,#183));
#101=EDGE_LOOP('',(#184,#185,#186,#187));
#102=EDGE_LOOP('',(#188,#189,#190,#191));
#103=EDGE_LOOP('',(#192,#193,#194,#195));
#104=EDGE_LOOP('',(#196,#197,#198,#199));
#105=EDGE_LOOP('',(#200,#201,#202,#203));
#106=EDGE_LOOP('',(#204,#205,#206,#207));
#107=EDGE_LOOP('',(#208,#209,#210,#211,#212,#213));
#108=EDGE_LOOP('',(#214));
#109=EDGE_LOOP('',(#215));
#110=EDGE_LOOP('',(#216));
#111=EDGE_LOOP('',(#217));
#112=EDGE_LOOP('',(#218));
#113=EDGE_LOOP('',(#219));
#114=CIRCLE('',#246,3.);
#115=CIRCLE('',#247,2.5);
#116=CIRCLE('',#249,3.);
#117=CIRCLE('',#252,8.);
#118=CIRCLE('',#253,7.5);
#119=CIRCLE('',#255,8.);
#120=CIRCLE('',#265,5.);
#121=CIRCLE('',#267,5.);
#122=VERTEX_POINT('',#339);
#123=VERTEX_POINT('',#341);
#124=VERTEX_POINT('',#344);
#125=VERTEX_POINT('',#348);
#126=VERTEX_POINT('',#350);
#127=VERTEX_POINT('',#353);
#128=VERTEX_POINT('',#356);
#129=VERTEX_POINT('',#357);
#130=VERTEX_POINT('',#359);
#131=VERTEX_POINT('',#361);
#132=VERTEX_POINT('',#363);
#133=VERTEX_POINT('',#365);
#134=VERTEX_POINT('',#369);
#135=VERTEX_POINT('',#371);
#136=VERTEX_POINT('',#375);
#137=VERTEX_POINT('',#379);
#138=VERTEX_POINT('',#383);
#139=VERTEX_POINT('',#387);
#140=VERTEX_POINT('',#394);
#141=VERTEX_POINT('',#397);
#142=EDGE_CURVE('',#122,#122,#114,.T.);
#143=EDGE_CURVE('',#123,#123,#115,.T.);
#144=EDGE_CURVE('',#124,#124,#116,.T.);
#145=EDGE_CURVE('',#125,#125,#117,.T.);
#146=EDGE_CURVE('',#126,#126,#118,.T.);
#147=EDGE_CURVE('',#127,#127,#119,.T.);
#148=EDGE_CURVE('',#128,#129,#15,.T.);
#149=EDGE_CURVE('',#129,#130,#16,.T.);
#150=EDGE_CURVE('',#130,#131,#17,.T.);
#151=EDGE_CURVE('',#131,#132,#18,.T.);
#152=EDGE_CURVE('',#132,#133,#19,.T.);
#153=EDGE_CURVE('',#133,#128,#20,.T.);
#154=EDGE_CURVE('',#128,#134,#21,.T.);
#155=EDGE_CURVE('',#134,#135,#22,.T.);
#156=EDGE_CURVE('',#129,#135,#23,.T.);
#157=EDGE_CURVE('',#133,#136,#24,.T.);
#158=EDGE_CURVE('',#136,#134,#25,.T.);
#159=EDGE_CURVE('',#132,#137,#26,.T.);
#160=EDGE_CURVE('',#137,#136,#27,.T.);
#161=EDGE_CURVE('',#131,#138,#28,.T.);
#162=EDGE_CURVE('',#138,#137,#29,.T.);
#163=EDGE_CURVE('',#130,#139,#30,.T.);
#164=EDGE_CURVE('',#139,#138,#31,.T.);
#165=EDGE_CURVE('',#135,#139,#32,.T.);
#166=EDGE_CURVE('',#140,#140,#120,.T.);
#167=EDGE_CURVE('',#141,#141,#121,.T.);
#168=ORIENTED_EDGE('',*,*,#142,.T.);
#169=ORIENTED_EDGE('',*,*,#143,.T.);
#170=ORIENTED_EDGE('',*,*,#144,.F.);
#171=ORIENTED_EDGE('',*,*,#142,.F.);
#172=ORIENTED_EDGE('',*,*,#143,.F.);
#173=ORIENTED_EDGE('',*,*,#145,.T.);
#174=ORIENTED_EDGE('',*,*,#146,.T.);
#175=ORIENTED_EDGE('',*,*,#147,.F.);
#176=ORIENTED_EDGE('',*,*,#145,.F.);
#177=ORIENTED_EDGE('',*,*,#146,.F.);
#178=ORIENTED_EDGE('',*,*,#148,.T.);
#179=ORIENTED_EDGE('',*,*,#149,.T.);
#180=ORIENTED_EDGE('',*,*,#150,.T.);
#181=ORIENTED_EDGE('',*,*,#151,.T.);
#182=ORIENTED_EDGE('',*,*,#152,.T.);
#183=ORIENTED_EDGE('',*,*,#153,.T.);
#184=ORIENTED_EDGE('',*,*,#148,.F.);
#185=ORIENTED_EDGE('',*,*,#154,.T.);
#186=ORIENTED_EDGE('',*,*,#155,.T.);
#187=ORIENTED_EDGE('',*,*,#156,.F.);
#188=ORIENTED_EDGE('',*,*,#153,.F.);
#189=ORIENTED_EDGE('',*,*,#157,.T.);
#190=ORIENTED_EDGE('',*,*,#158,.T.);
#191=ORIENTED_EDGE('',*,*,#154,.F.);
#192=ORIENTED_EDGE('',*,*,#152,.F.);
#193=ORIENTED_EDGE('',*,*,#159,.T.);
#194=ORIENTED_EDGE('',*,*,#160,.T.);
#195=ORIENTED_EDGE('',*,*,#157,.F.);
#196=ORIENTED_EDGE('',*,*,#151,.F.);
#197=ORIENTED_EDGE('',*,*,#161,.T.);
#198=ORIENTED_EDGE('',*,*,#162,.T.);
#199=ORIENTED_EDGE('',*,*,#159,.F.);
#200=ORIENTED_EDGE('',*,*,#150,.F.);
#201=ORIENTED_EDGE('',*,*,#163,.T.);
#202=ORIENTED_EDGE('',*,*,#164,.T.);
#203=ORIENTED_EDGE('',*,*,#161,.F.);
#204=ORIENTED_EDGE('',*,*,#149,.F.);
#205=ORIENTED_EDGE('',*,*,#156,.T.);
#206=ORIENTED_EDGE('',*,*,#165,.T.);
#207=ORIENTED_EDGE('',*,*,#163,.F.);
#208=ORIENTED_EDGE('',*,*,#165,.F.);
#209=ORIENTED_EDGE('',*,*,#155,.F.);
#210=ORIENTED_EDGE('',*,*,#158,.F.);
#211=ORIENTED_EDGE('',*,*,#160,.F.);
#212=ORIENTED_EDGE('',*,*,#162,.F.);
#213=ORIENTED_EDGE('',*,*,#164,.F.);
#214=ORIENTED_EDGE('',*,*,#147,.T.);
#215=ORIENTED_EDGE('',*,*,#166,.T.);
#216=ORIENTED_EDGE('',*,*,#166,.F.);
#217=ORIENTED_EDGE('',*,*,#167,.F.);
#218=ORIENTED_EDGE('',*,*,#167,.T.);
#219=ORIENTED_EDGE('',*,*,#144,.T.);
#220=CONICAL_SURFACE('',#245,2.75,45.);
#221=ADVANCED_FACE('',(#74,#66),#220,.T.);
#222=ADVANCED_FACE('',(#75,#67),#63,.T.);
#223=ADVANCED_FACE('',(#76),#52,.F.);
#224=ADVANCED_FACE('',(#77,#68),#51,.T.);
#225=ADVANCED_FACE('',(#78,#69),#64,.T.);
#226=ADVANCED_FACE('',(#79,#70),#53,.T.);
#227=ADVANCED_FACE('',(#80),#54,.F.);
#228=ADVANCED_FACE('',(#81),#55,.F.);
#229=ADVANCED_FACE('',(#82),#56,.F.);
#230=ADVANCED_FACE('',(#83),#57,.F.);
#231=ADVANCED_FACE('',(#84),#58,.F.);
#232=ADVANCED_FACE('',(#85),#59,.F.);
#233=ADVANCED_FACE('',(#86),#60,.F.);
#234=ADVANCED_FACE('',(#87,#71),#61,.F.);
#235=ADVANCED_FACE('',(#88,#72),#65,.T.);
#236=ADVANCED_FACE('',(#89,#73),#62,.F.);
#237=CLOSED_SHELL('',(#221,#222,#223,#224,#225,#226,#227,#228,#229,#230,
#231,#232,#233,#234,#235,#236));
#238=DATE_TIME_ROLE('creation_date');
#239=APPLIED_DATE_AND_TIME_ASSIGNMENT(#240,#238,(#414));
#240=DATE_AND_TIME(#241,#242);
#241=CALENDAR_DATE(2021,9,2);
#242=LOCAL_TIME(16,37,49.,#243);
#243=COORDINATED_UNIVERSAL_TIME_OFFSET(0,0,.BEHIND.);
#244=AXIS2_PLACEMENT_3D('placement',#337,#269,#270);
#245=AXIS2_PLACEMENT_3D('',#338,#271,#272);
#246=AXIS2_PLACEMENT_3D('',#340,#273,#274);
#247=AXIS2_PLACEMENT_3D('',#342,#275,#276);
#248=AXIS2_PLACEMENT_3D('',#343,#277,#278);
#249=AXIS2_PLACEMENT_3D('',#345,#279,#280);
#250=AXIS2_PLACEMENT_3D('',#346,#281,#282);
#251=AXIS2_PLACEMENT_3D('',#347,#283,#284);
#252=AXIS2_PLACEMENT_3D('',#349,#285,#286);
#253=AXIS2_PLACEMENT_3D('',#351,#287,#288);
#254=AXIS2_PLACEMENT_3D('',#352,#289,#290);
#255=AXIS2_PLACEMENT_3D('',#354,#291,#292);
#256=AXIS2_PLACEMENT_3D('',#355,#293,#294);
#257=AXIS2_PLACEMENT_3D('',#368,#301,#302);
#258=AXIS2_PLACEMENT_3D('',#374,#306,#307);
#259=AXIS2_PLACEMENT_3D('',#378,#310,#311);
#260=AXIS2_PLACEMENT_3D('',#382,#314,#315);
#261=AXIS2_PLACEMENT_3D('',#386,#318,#319);
#262=AXIS2_PLACEMENT_3D('',#390,#322,#323);
#263=AXIS2_PLACEMENT_3D('',#392,#325,#326);
#264=AXIS2_PLACEMENT_3D('',#393,#327,#328);
#265=AXIS2_PLACEMENT_3D('',#395,#329,#330);
#266=AXIS2_PLACEMENT_3D('',#396,#331,#332);
#267=AXIS2_PLACEMENT_3D('',#398,#333,#334);
#268=AXIS2_PLACEMENT_3D('',#399,#335,#336);
#269=DIRECTION('axis',(0.,0.,1.));
#270=DIRECTION('refdir',(1.,0.,0.));
#271=DIRECTION('center_axis',(0.,0.,1.));
#272=DIRECTION('ref_axis',(1.,0.,0.));
#273=DIRECTION('center_axis',(0.,0.,-1.));
#274=DIRECTION('ref_axis',(1.,0.,0.));
#275=DIRECTION('center_axis',(0.,0.,1.));
#276=DIRECTION('ref_axis',(1.,0.,0.));
#277=DIRECTION('center_axis',(0.,0.,-1.));
#278=DIRECTION('ref_axis',(1.,0.,0.));
#279=DIRECTION('center_axis',(0.,0.,1.));
#280=DIRECTION('ref_axis',(1.,0.,0.));
#281=DIRECTION('center_axis',(0.,0.,1.));
#282=DIRECTION('ref_axis',(1.,0.,0.));
#283=DIRECTION('center_axis',(0.,0.,1.));
#284=DIRECTION('ref_axis',(1.,0.,0.));
#285=DIRECTION('center_axis',(0.,0.,1.));
#286=DIRECTION('ref_axis',(-1.,0.,0.));
#287=DIRECTION('center_axis',(0.,0.,-1.));
#288=DIRECTION('ref_axis',(-1.,0.,0.));
#289=DIRECTION('center_axis',(0.,0.,1.));
#290=DIRECTION('ref_axis',(-1.,0.,0.));
#291=DIRECTION('center_axis',(0.,0.,-1.));
#292=DIRECTION('ref_axis',(-1.,0.,0.));
#293=DIRECTION('center_axis',(0.,0.,1.));
#294=DIRECTION('ref_axis',(1.,0.,0.));
#295=DIRECTION('',(1.,2.40370335797945E-16,0.));
#296=DIRECTION('',(0.5,-0.866025403784439,0.));
#297=DIRECTION('',(-0.5,-0.866025403784439,0.));
#298=DIRECTION('',(-1.,0.,0.));
#299=DIRECTION('',(-0.5,0.866025403784439,0.));
#300=DIRECTION('',(0.5,0.866025403784439,0.));
#301=DIRECTION('center_axis',(-2.40370335797945E-16,1.,0.));
#302=DIRECTION('ref_axis',(1.,2.22044604925031E-16,0.));
#303=DIRECTION('',(0.,0.,-1.));
#304=DIRECTION('',(1.,2.40370335797945E-16,0.));
#305=DIRECTION('',(0.,0.,-1.));
#306=DIRECTION('center_axis',(-0.866025403784439,0.5,0.));
#307=DIRECTION('ref_axis',(0.5,0.866025403784439,0.));
#308=DIRECTION('',(0.,0.,-1.));
#309=DIRECTION('',(0.5,0.866025403784439,0.));
#310=DIRECTION('center_axis',(-0.866025403784439,-0.5,0.));
#311=DIRECTION('ref_axis',(-0.5,0.866025403784439,0.));
#312=DIRECTION('',(0.,0.,-1.));
#313=DIRECTION('',(-0.5,0.866025403784439,0.));
#314=DIRECTION('center_axis',(0.,-1.,0.));
#315=DIRECTION('ref_axis',(-1.,0.,0.));
#316=DIRECTION('',(0.,0.,-1.));
#317=DIRECTION('',(-1.,0.,0.));
#318=DIRECTION('center_axis',(0.866025403784439,-0.5,0.));
#319=DIRECTION('ref_axis',(-0.5,-0.866025403784439,0.));
#320=DIRECTION('',(0.,0.,-1.));
#321=DIRECTION('',(-0.5,-0.866025403784439,0.));
#322=DIRECTION('center_axis',(0.866025403784439,0.5,0.));
#323=DIRECTION('ref_axis',(0.5,-0.866025403784439,0.));
#324=DIRECTION('',(0.5,-0.866025403784439,0.));
#325=DIRECTION('center_axis',(0.,0.,-1.));
#326=DIRECTION('ref_axis',(-1.,0.,0.));
#327=DIRECTION('center_axis',(0.,0.,1.));
#328=DIRECTION('ref_axis',(1.,0.,0.));
#329=DIRECTION('center_axis',(0.,0.,1.));
#330=DIRECTION('ref_axis',(-1.,0.,0.));
#331=DIRECTION('center_axis',(0.,0.,1.));
#332=DIRECTION('ref_axis',(-1.,0.,0.));
#333=DIRECTION('center_axis',(0.,0.,-1.));
#334=DIRECTION('ref_axis',(-1.,0.,0.));
#335=DIRECTION('center_axis',(0.,0.,1.));
#336=DIRECTION('ref_axis',(1.,0.,0.));
#337=CARTESIAN_POINT('',(0.,0.,0.));
#338=CARTESIAN_POINT('Origin',(0.,0.,-7.75));
#339=CARTESIAN_POINT('',(-3.,3.67394039744206E-16,-7.5));
#340=CARTESIAN_POINT('Origin',(0.,0.,-7.5));
#341=CARTESIAN_POINT('',(-2.5,-3.06161699786838E-16,-8.));
#342=CARTESIAN_POINT('Origin',(0.,0.,-8.));
#343=CARTESIAN_POINT('Origin',(0.,0.,0.));
#344=CARTESIAN_POINT('',(-3.,3.67394039744206E-16,0.));
#345=CARTESIAN_POINT('Origin',(0.,0.,0.));
#346=CARTESIAN_POINT('Origin',(3.39011454596783E-16,7.70988211545247E-17,
-8.));
#347=CARTESIAN_POINT('Origin',(0.,0.,18.5));
#348=CARTESIAN_POINT('',(8.,9.79717439317883E-16,18.5));
#349=CARTESIAN_POINT('Origin',(0.,0.,18.5));
#350=CARTESIAN_POINT('',(7.5,-9.18485099360515E-16,19.));
#351=CARTESIAN_POINT('Origin',(0.,0.,19.));
#352=CARTESIAN_POINT('Origin',(0.,0.,12.));
#353=CARTESIAN_POINT('',(8.,9.79717439317883E-16,12.));
#354=CARTESIAN_POINT('Origin',(0.,0.,12.));
#355=CARTESIAN_POINT('Origin',(-5.44236046870305E-16,0.,19.));
#356=CARTESIAN_POINT('',(-2.30940107675851,4.,19.));
#357=CARTESIAN_POINT('',(2.3094010767585,4.,19.));
#358=CARTESIAN_POINT('',(-1.15470053837925,4.,19.));
#359=CARTESIAN_POINT('',(4.618802153517,-1.39390549570716E-15,19.));
#360=CARTESIAN_POINT('',(2.88675134594812,3.,19.));
#361=CARTESIAN_POINT('',(2.3094010767585,-4.,19.));
#362=CARTESIAN_POINT('',(4.04145188432738,-1.,19.));
#363=CARTESIAN_POINT('',(-2.30940107675851,-4.,19.));
#364=CARTESIAN_POINT('',(1.15470053837925,-4.,19.));
#365=CARTESIAN_POINT('',(-4.61880215351701,-1.02990071738347E-15,19.));
#366=CARTESIAN_POINT('',(-2.88675134594813,-3.,19.));
#367=CARTESIAN_POINT('',(-4.04145188432738,1.,19.));
#368=CARTESIAN_POINT('Origin',(-2.30940107675851,4.,19.));
#369=CARTESIAN_POINT('',(-2.30940107675851,4.,14.));
#370=CARTESIAN_POINT('',(-2.30940107675851,4.,19.));
#371=CARTESIAN_POINT('',(2.3094010767585,4.,14.));
#372=CARTESIAN_POINT('',(-2.30940107675851,4.,14.));
#373=CARTESIAN_POINT('',(2.3094010767585,4.,19.));
#374=CARTESIAN_POINT('Origin',(-4.61880215351701,-1.02990071738347E-15,
19.));
#375=CARTESIAN_POINT('',(-4.61880215351701,-1.11022302462516E-15,14.));
#376=CARTESIAN_POINT('',(-4.61880215351701,-1.02990071738347E-15,19.));
#377=CARTESIAN_POINT('',(-4.61880215351701,-1.02990071738347E-15,14.));
#378=CARTESIAN_POINT('Origin',(-2.30940107675851,-4.,19.));
#379=CARTESIAN_POINT('',(-2.30940107675851,-4.,14.));
#380=CARTESIAN_POINT('',(-2.30940107675851,-4.,19.));
#381=CARTESIAN_POINT('',(-2.30940107675851,-4.,14.));
#382=CARTESIAN_POINT('Origin',(2.3094010767585,-4.,19.));
#383=CARTESIAN_POINT('',(2.3094010767585,-4.,14.));
#384=CARTESIAN_POINT('',(2.3094010767585,-4.,19.));
#385=CARTESIAN_POINT('',(2.3094010767585,-4.,14.));
#386=CARTESIAN_POINT('Origin',(4.618802153517,-1.39390549570716E-15,19.));
#387=CARTESIAN_POINT('',(4.618802153517,-1.66533453693773E-15,14.));
#388=CARTESIAN_POINT('',(4.618802153517,-1.39390549570716E-15,19.));
#389=CARTESIAN_POINT('',(4.618802153517,-1.39390549570716E-15,14.));
#390=CARTESIAN_POINT('Origin',(2.3094010767585,4.,19.));
#391=CARTESIAN_POINT('',(2.3094010767585,4.,14.));
#392=CARTESIAN_POINT('Origin',(-4.44089209850063E-15,-5.55111512312578E-16,
14.));
#393=CARTESIAN_POINT('Origin',(-5.44236046870305E-16,0.,12.));
#394=CARTESIAN_POINT('',(5.,6.12323399573677E-16,12.));
#395=CARTESIAN_POINT('Origin',(0.,0.,12.));
#396=CARTESIAN_POINT('Origin',(0.,0.,0.));
#397=CARTESIAN_POINT('',(5.,6.12323399573677E-16,0.));
#398=CARTESIAN_POINT('Origin',(0.,0.,0.));
#399=CARTESIAN_POINT('Origin',(-2.36064120735332E-16,0.,0.));
#400=UNCERTAINTY_MEASURE_WITH_UNIT(LENGTH_MEASURE(0.01),#404,
'DISTANCE_ACCURACY_VALUE',
'Maximum model space distance between geometric entities at asserted c
onnectivities');
#401=UNCERTAINTY_MEASURE_WITH_UNIT(LENGTH_MEASURE(1.E-6),#404,
'DISTANCE_ACCURACY_VALUE',
'Maximum model space distance between geometric entities at asserted c
onnectivities');
#402=(
GEOMETRIC_REPRESENTATION_CONTEXT(3)
GLOBAL_UNCERTAINTY_ASSIGNED_CONTEXT((#400))
GLOBAL_UNIT_ASSIGNED_CONTEXT((#404,#407,#405))
REPRESENTATION_CONTEXT('','3D')
);
#403=(
GEOMETRIC_REPRESENTATION_CONTEXT(3)
GLOBAL_UNCERTAINTY_ASSIGNED_CONTEXT((#401))
GLOBAL_UNIT_ASSIGNED_CONTEXT((#404,#407,#405))
REPRESENTATION_CONTEXT('','3D')
);
#404=(
LENGTH_UNIT()
NAMED_UNIT(*)
SI_UNIT(.MILLI.,.METRE.)
);
#405=(
NAMED_UNIT(*)
SI_UNIT($,.STERADIAN.)
SOLID_ANGLE_UNIT()
);
#406=DIMENSIONAL_EXPONENTS(0.,0.,0.,0.,0.,0.,0.);
#407=(
CONVERSION_BASED_UNIT('degree',#409)
NAMED_UNIT(#406)
PLANE_ANGLE_UNIT()
);
#408=(
NAMED_UNIT(*)
PLANE_ANGLE_UNIT()
SI_UNIT($,.RADIAN.)
);
#409=PLANE_ANGLE_MEASURE_WITH_UNIT(PLANE_ANGLE_MEASURE(0.01745329252),#408);
#410=SHAPE_DEFINITION_REPRESENTATION(#411,#412);
#411=PRODUCT_DEFINITION_SHAPE('',$,#414);
#412=SHAPE_REPRESENTATION('',(#244),#402);
#413=PRODUCT_DEFINITION_CONTEXT('part definition',#418,'design');
#414=PRODUCT_DEFINITION('vis_epaul\X\E9e8_m6','vis_epaul\X\E9e8_m6',#415,
#413);
#415=PRODUCT_DEFINITION_FORMATION('',$,#420);
#416=PRODUCT_RELATED_PRODUCT_CATEGORY('vis_epaul\X\E9e8_m6',
'vis_epaul\X\E9e8_m6',(#420));
#417=APPLICATION_PROTOCOL_DEFINITION('international standard',
'automotive_design',2009,#418);
#418=APPLICATION_CONTEXT(
'Core Data for Automotive Mechanical Design Process');
#419=PRODUCT_CONTEXT('part definition',#418,'mechanical');
#420=PRODUCT('vis_epaul\X\E9e8_m6','vis_epaul\X\E9e8_m6',$,(#419));
#421=PRESENTATION_STYLE_ASSIGNMENT((#422));
#422=SURFACE_STYLE_USAGE(.BOTH.,#423);
#423=SURFACE_SIDE_STYLE('',(#424));
#424=SURFACE_STYLE_FILL_AREA(#425);
#425=FILL_AREA_STYLE('',(#426));
#426=FILL_AREA_STYLE_COLOUR('',#427);
#427=COLOUR_RGB('',0.745098039215686,0.737254901960784,0.729411764705882);
ENDSEC;
END-ISO-10303-21;
