ISO-10303-21;
HEADER;
FILE_DESCRIPTION (( 'STEP AP214' ),
    '1' );
FILE_NAME ('Axe16.STEP',
    '2021-04-07T08:25:17',
    ( '' ),
    ( '' ),
    'SwSTEP 2.0',
    'SolidWorks 2019',
    '' );
FILE_SCHEMA (( 'AUTOMOTIVE_DESIGN' ));
ENDSEC;

DATA;
#1 = AXIS2_PLACEMENT_3D ( 'NONE', #102, #210, #190 ) ;
#2 = AXIS2_PLACEMENT_3D ( 'NONE', #45, #115, #81 ) ;
#3 = CARTESIAN_POINT ( 'NONE',  ( 0.000000000000000000, 0.000000000000000000, 0.000000000000000000 ) ) ;
#4 = CARTESIAN_POINT ( 'NONE',  ( 0.000000000000000000, 0.5000000000000004441, 0.000000000000000000 ) ) ;
#5 = CARTESIAN_POINT ( 'NONE',  ( 9.797174393178825657E-16, 99.50000000000000000, 8.000000000000000000 ) ) ;
#6 = EDGE_CURVE ( 'NONE', #228, #187, #236, .T. ) ;
#7 = DIRECTION ( 'NONE',  ( 8.659560562354994488E-17, -0.7071067811865426878, 0.7071067811865524577 ) ) ;
#8 = FACE_OUTER_BOUND ( 'NONE', #116, .T. ) ;
#9 = ORIENTED_EDGE ( 'NONE', *, *, #34, .T. ) ;
#10 = ORIENTED_EDGE ( 'NONE', *, *, #221, .F. ) ;
#11 = PRODUCT_CONTEXT ( 'NONE', #155, 'mechanical' ) ;
#12 = EDGE_CURVE ( 'NONE', #187, #228, #69, .T. ) ;
#13 = VECTOR ( 'NONE', #7, 1000.000000000000000 ) ;
#14 = PRESENTATION_LAYER_ASSIGNMENT (  '', '', ( #216 ) ) ;
#15 = ORIENTED_EDGE ( 'NONE', *, *, #188, .F. ) ;
#16 = EDGE_LOOP ( 'NONE', ( #15, #98, #67, #99 ) ) ;
#17 = PRESENTATION_STYLE_ASSIGNMENT (( #108 ) ) ;
#18 = PRESENTATION_LAYER_ASSIGNMENT (  '', '', ( #133 ) ) ;
#19 = UNCERTAINTY_MEASURE_WITH_UNIT (LENGTH_MEASURE( 1.000000000000000082E-05 ), #33, 'distance_accuracy_value', 'NONE');
#20 = PRODUCT_RELATED_PRODUCT_CATEGORY ( 'part', '', ( #209 ) ) ;
#21 = CARTESIAN_POINT ( 'NONE',  ( 0.000000000000000000, 100.0000000000000000, -8.000000000000000000 ) ) ;
#22 = AXIS2_PLACEMENT_3D ( 'NONE', #178, #23, #73 ) ;
#23 = DIRECTION ( 'NONE',  ( -0.000000000000000000, 1.000000000000000000, -0.000000000000000000 ) ) ;
#24 = CARTESIAN_POINT ( 'NONE',  ( 0.000000000000000000, 100.0000000000000000, -7.499999999999992895 ) ) ;
#25 = DIRECTION ( 'NONE',  ( 0.000000000000000000, 1.000000000000000000, 0.000000000000000000 ) ) ;
#26 = DIRECTION ( 'NONE',  ( 0.000000000000000000, 0.000000000000000000, -1.000000000000000000 ) ) ;
#27 = VECTOR ( 'NONE', #203, 1000.000000000000000 ) ;
#28 = CARTESIAN_POINT ( 'NONE',  ( 9.184850993605140056E-16, 100.0000000000000000, 7.499999999999992895 ) ) ;
#29 = CARTESIAN_POINT ( 'NONE',  ( 0.000000000000000000, 0.000000000000000000, 7.500000000000007105 ) ) ;
#30 = EDGE_LOOP ( 'NONE', ( #173, #157 ) ) ;
#31 = ADVANCED_FACE ( 'NONE', ( #198 ), #91, .T. ) ;
#32 = ORIENTED_EDGE ( 'NONE', *, *, #177, .T. ) ;
#33 =( LENGTH_UNIT ( ) NAMED_UNIT ( * ) SI_UNIT ( .MILLI., .METRE. ) );
#34 = EDGE_CURVE ( 'NONE', #211, #213, #77, .T. ) ;
#35 = CIRCLE ( 'NONE', #61, 7.499999999999992895 ) ;
#36 = VERTEX_POINT ( 'NONE', #53 ) ;
#37 = FILL_AREA_STYLE ('',( #68 ) ) ;
#38 = CARTESIAN_POINT ( 'NONE',  ( 0.000000000000000000, 0.000000000000000000, 0.000000000000000000 ) ) ;
#39 = UNCERTAINTY_MEASURE_WITH_UNIT (LENGTH_MEASURE( 1.000000000000000082E-05 ), #159, 'distance_accuracy_value', 'NONE');
#40 = DIRECTION ( 'NONE',  ( 0.000000000000000000, -0.000000000000000000, 1.000000000000000000 ) ) ;
#41 = DIRECTION ( 'NONE',  ( 0.000000000000000000, -1.000000000000000000, 0.000000000000000000 ) ) ;
#42 = PLANE ( 'NONE',  #104 ) ;
#43 = CARTESIAN_POINT ( 'NONE',  ( 0.000000000000000000, 0.000000000000000000, 0.000000000000000000 ) ) ;
#44 = EDGE_CURVE ( 'NONE', #119, #36, #110, .T. ) ;
#45 = CARTESIAN_POINT ( 'NONE',  ( 0.000000000000000000, 100.0000000000000000, 0.000000000000000000 ) ) ;
#46 = LINE ( 'NONE', #97, #63 ) ;
#47 = ADVANCED_BREP_SHAPE_REPRESENTATION ( 'Axe16', ( #113, #1 ), #215 ) ;
#48 = AXIS2_PLACEMENT_3D ( 'NONE', #219, #74, #217 ) ;
#49 = VERTEX_POINT ( 'NONE', #145 ) ;
#50 = CARTESIAN_POINT ( 'NONE',  ( 0.000000000000000000, 0.5000000000000004441, 0.000000000000000000 ) ) ;
#51 = CONICAL_SURFACE ( 'NONE', #179, 8.000000000000000000, 0.7853981633974415066 ) ;
#52 = ORIENTED_EDGE ( 'NONE', *, *, #34, .F. ) ;
#53 = CARTESIAN_POINT ( 'NONE',  ( 0.000000000000000000, 99.50000000000000000, -8.000000000000000000 ) ) ;
#54 = DIRECTION ( 'NONE',  ( -0.000000000000000000, -1.000000000000000000, -0.000000000000000000 ) ) ;
#55 = DIRECTION ( 'NONE',  ( -0.000000000000000000, -1.000000000000000000, -0.000000000000000000 ) ) ;
#56 = CIRCLE ( 'NONE', #148, 8.000000000000000000 ) ;
#57 = FACE_OUTER_BOUND ( 'NONE', #30, .T. ) ;
#58 = DIRECTION ( 'NONE',  ( -0.000000000000000000, 1.000000000000000000, -0.000000000000000000 ) ) ;
#59 = EDGE_CURVE ( 'NONE', #36, #119, #152, .T. ) ;
#60 = LINE ( 'NONE', #28, #13 ) ;
#61 = AXIS2_PLACEMENT_3D ( 'NONE', #222, #25, #78 ) ;
#62 = LINE ( 'NONE', #166, #75 ) ;
#63 = VECTOR ( 'NONE', #167, 1000.000000000000000 ) ;
#64 = ORIENTED_EDGE ( 'NONE', *, *, #6, .F. ) ;
#65 = SURFACE_STYLE_USAGE ( .BOTH. , #233 ) ;
#66 = EDGE_LOOP ( 'NONE', ( #132, #234, #231, #103 ) ) ;
#67 = ORIENTED_EDGE ( 'NONE', *, *, #229, .T. ) ;
#68 = FILL_AREA_STYLE_COLOUR ( '', #135 ) ;
#69 = CIRCLE ( 'NONE', #214, 7.500000000000007105 ) ;
#70 = AXIS2_PLACEMENT_3D ( 'NONE', #93, #181, #94 ) ;
#71 = EDGE_CURVE ( 'NONE', #49, #36, #199, .T. ) ;
#72 = ADVANCED_FACE ( 'NONE', ( #124 ), #176, .T. ) ;
#73 = DIRECTION ( 'NONE',  ( 0.000000000000000000, 0.000000000000000000, 1.000000000000000000 ) ) ;
#74 = DIRECTION ( 'NONE',  ( 0.000000000000000000, -1.000000000000000000, 0.000000000000000000 ) ) ;
#75 = VECTOR ( 'NONE', #151, 1000.000000000000000 ) ;
#76 = CYLINDRICAL_SURFACE ( 'NONE', #95, 8.000000000000000000 ) ;
#77 = CIRCLE ( 'NONE', #22, 8.000000000000000000 ) ;
#78 = DIRECTION ( 'NONE',  ( 0.000000000000000000, 0.000000000000000000, 1.000000000000000000 ) ) ;
#79 = EDGE_CURVE ( 'NONE', #213, #211, #56, .T. ) ;
#80 =( LENGTH_UNIT ( ) NAMED_UNIT ( * ) SI_UNIT ( .MILLI., .METRE. ) );
#81 = DIRECTION ( 'NONE',  ( 0.000000000000000000, 0.000000000000000000, -1.000000000000000000 ) ) ;
#82 = VERTEX_POINT ( 'NONE', #192 ) ;
#83 = CLOSED_SHELL ( 'NONE', ( #72, #118, #184, #137, #31, #121, #128, #195 ) ) ;
#84 = EDGE_LOOP ( 'NONE', ( #134, #32 ) ) ;
#85 = COLOUR_RGB ( '',0.7921568627450980005, 0.8196078431372548767, 0.9333333333333333481 ) ;
#86 = APPLICATION_PROTOCOL_DEFINITION ( 'draft international standard', 'automotive_design', 1998, #155 ) ;
#87 = ORIENTED_EDGE ( 'NONE', *, *, #59, .T. ) ;
#88 = ORIENTED_EDGE ( 'NONE', *, *, #44, .T. ) ;
#89 = DIRECTION ( 'NONE',  ( -0.000000000000000000, 1.000000000000000000, -0.000000000000000000 ) ) ;
#90 = AXIS2_PLACEMENT_3D ( 'NONE', #38, #107, #163 ) ;
#91 = PLANE ( 'NONE',  #126 ) ;
#92 = DIRECTION ( 'NONE',  ( 0.000000000000000000, 0.000000000000000000, -1.000000000000000000 ) ) ;
#93 = CARTESIAN_POINT ( 'NONE',  ( 0.000000000000000000, 100.0000000000000000, 0.000000000000000000 ) ) ;
#94 = DIRECTION ( 'NONE',  ( 0.000000000000000000, 0.000000000000000000, 1.000000000000000000 ) ) ;
#95 = AXIS2_PLACEMENT_3D ( 'NONE', #182, #55, #26 ) ;
#96 = EDGE_CURVE ( 'NONE', #36, #213, #237, .T. ) ;
#97 = CARTESIAN_POINT ( 'NONE',  ( 9.797174393178825657E-16, 0.5000000000000004441, -8.000000000000000000 ) ) ;
#98 = ORIENTED_EDGE ( 'NONE', *, *, #12, .F. ) ;
#99 = ORIENTED_EDGE ( 'NONE', *, *, #79, .F. ) ;
#100 = FILL_AREA_STYLE_COLOUR ( '', #85 ) ;
#101 = PRODUCT_DEFINITION_CONTEXT ( 'detailed design', #175, 'design' ) ;
#102 = CARTESIAN_POINT ( 'NONE',  ( 0.000000000000000000, 0.000000000000000000, 0.000000000000000000 ) ) ;
#103 = ORIENTED_EDGE ( 'NONE', *, *, #71, .F. ) ;
#104 = AXIS2_PLACEMENT_3D ( 'NONE', #43, #127, #165 ) ;
#105 = ORIENTED_EDGE ( 'NONE', *, *, #44, .F. ) ;
#106 = SURFACE_SIDE_STYLE ('',( #144 ) ) ;
#107 = DIRECTION ( 'NONE',  ( -0.000000000000000000, -1.000000000000000000, -0.000000000000000000 ) ) ;
#108 = SURFACE_STYLE_USAGE ( .BOTH. , #106 ) ;
#109 = DIRECTION ( 'NONE',  ( 0.000000000000000000, 1.000000000000000000, 0.000000000000000000 ) ) ;
#110 = CIRCLE ( 'NONE', #117, 8.000000000000000000 ) ;
#111 = CARTESIAN_POINT ( 'NONE',  ( 0.000000000000000000, 100.0000000000000000, 0.000000000000000000 ) ) ;
#112 = DIRECTION ( 'NONE',  ( -0.000000000000000000, -1.000000000000000000, -0.000000000000000000 ) ) ;
#113 = MANIFOLD_SOLID_BREP ( 'Chanfrein1', #83 ) ;
#114 = FACE_OUTER_BOUND ( 'NONE', #16, .T. ) ;
#115 = DIRECTION ( 'NONE',  ( 0.000000000000000000, -1.000000000000000000, 0.000000000000000000 ) ) ;
#116 = EDGE_LOOP ( 'NONE', ( #10, #158, #153, #105 ) ) ;
#117 = AXIS2_PLACEMENT_3D ( 'NONE', #146, #41, #161 ) ;
#118 = ADVANCED_FACE ( 'NONE', ( #141 ), #238, .T. ) ;
#119 = VERTEX_POINT ( 'NONE', #5 ) ;
#120 = CARTESIAN_POINT ( 'NONE',  ( 0.000000000000000000, 0.5000000000000004441, 0.000000000000000000 ) ) ;
#121 = ADVANCED_FACE ( 'NONE', ( #57 ), #42, .F. ) ;
#122 = EDGE_CURVE ( 'NONE', #49, #82, #35, .T. ) ;
#123 = CARTESIAN_POINT ( 'NONE',  ( 0.000000000000000000, 100.0000000000000000, 0.000000000000000000 ) ) ;
#124 = FACE_OUTER_BOUND ( 'NONE', #66, .T. ) ;
#125 = FACE_OUTER_BOUND ( 'NONE', #191, .T. ) ;
#126 = AXIS2_PLACEMENT_3D ( 'NONE', #123, #109, #40 ) ;
#127 = DIRECTION ( 'NONE',  ( 0.000000000000000000, 1.000000000000000000, 0.000000000000000000 ) ) ;
#128 = ADVANCED_FACE ( 'NONE', ( #114 ), #51, .T. ) ;
#129 = CARTESIAN_POINT ( 'NONE',  ( 0.000000000000000000, 0.5000000000000004441, -8.000000000000000000 ) ) ;
#130 = AXIS2_PLACEMENT_3D ( 'NONE', #120, #201, #147 ) ;
#131 = CARTESIAN_POINT ( 'NONE',  ( 9.797174393178825657E-16, 100.0000000000000000, 8.000000000000000000 ) ) ;
#132 = ORIENTED_EDGE ( 'NONE', *, *, #177, .F. ) ;
#133 = STYLED_ITEM ( 'NONE', ( #227 ), #47 ) ;
#134 = ORIENTED_EDGE ( 'NONE', *, *, #122, .T. ) ;
#135 = COLOUR_RGB ( '',0.7921568627450980005, 0.8196078431372548767, 0.9333333333333333481 ) ;
#136 = PRODUCT_DEFINITION_SHAPE ( 'NONE', 'NONE',  #202 ) ;
#137 = ADVANCED_FACE ( 'NONE', ( #220 ), #76, .T. ) ;
#138 = FILL_AREA_STYLE ('',( #100 ) ) ;
#139 = EDGE_LOOP ( 'NONE', ( #64, #168, #52, #154 ) ) ;
#140 = PRODUCT_DEFINITION_FORMATION_WITH_SPECIFIED_SOURCE ( 'ANY', '', #209, .NOT_KNOWN. ) ;
#141 = FACE_OUTER_BOUND ( 'NONE', #139, .T. ) ;
#142 = ORIENTED_EDGE ( 'NONE', *, *, #232, .F. ) ;
#143 = VECTOR ( 'NONE', #240, 1000.000000000000000 ) ;
#144 = SURFACE_STYLE_FILL_AREA ( #37 ) ;
#145 = CARTESIAN_POINT ( 'NONE',  ( 0.000000000000000000, 100.0000000000000000, -7.499999999999992895 ) ) ;
#146 = CARTESIAN_POINT ( 'NONE',  ( 0.000000000000000000, 99.50000000000000000, 0.000000000000000000 ) ) ;
#147 = DIRECTION ( 'NONE',  ( 0.000000000000000000, 0.000000000000000000, 1.000000000000000000 ) ) ;
#148 = AXIS2_PLACEMENT_3D ( 'NONE', #50, #89, #212 ) ;
#149 = DIRECTION ( 'NONE',  ( 0.000000000000000000, 0.000000000000000000, 1.000000000000000000 ) ) ;
#150 =( NAMED_UNIT ( * ) PLANE_ANGLE_UNIT ( ) SI_UNIT ( $, .RADIAN. ) );
#151 = DIRECTION ( 'NONE',  ( 0.000000000000000000, 0.7071067811865524577, 0.7071067811865426878 ) ) ;
#152 = CIRCLE ( 'NONE', #48, 8.000000000000000000 ) ;
#153 = ORIENTED_EDGE ( 'NONE', *, *, #71, .T. ) ;
#154 = ORIENTED_EDGE ( 'NONE', *, *, #229, .F. ) ;
#155 = APPLICATION_CONTEXT ( 'automotive_design' ) ;
#156 = APPLICATION_PROTOCOL_DEFINITION ( 'draft international standard', 'automotive_design', 1998, #175 ) ;
#157 = ORIENTED_EDGE ( 'NONE', *, *, #6, .T. ) ;
#158 = ORIENTED_EDGE ( 'NONE', *, *, #122, .F. ) ;
#159 =( LENGTH_UNIT ( ) NAMED_UNIT ( * ) SI_UNIT ( .MILLI., .METRE. ) );
#160 = MECHANICAL_DESIGN_GEOMETRIC_PRESENTATION_REPRESENTATION (  '', ( #216 ), #204 ) ;
#161 = DIRECTION ( 'NONE',  ( 0.000000000000000000, 0.000000000000000000, 1.000000000000000000 ) ) ;
#162 = UNCERTAINTY_MEASURE_WITH_UNIT (LENGTH_MEASURE( 1.000000000000000082E-05 ), #80, 'distance_accuracy_value', 'NONE');
#163 = DIRECTION ( 'NONE',  ( 0.000000000000000000, 0.000000000000000000, 1.000000000000000000 ) ) ;
#164 = CYLINDRICAL_SURFACE ( 'NONE', #197, 8.000000000000000000 ) ;
#165 = DIRECTION ( 'NONE',  ( 0.000000000000000000, -0.000000000000000000, 1.000000000000000000 ) ) ;
#166 = CARTESIAN_POINT ( 'NONE',  ( 0.000000000000000000, 0.5000000000000004441, 8.000000000000000000 ) ) ;
#167 = DIRECTION ( 'NONE',  ( 8.659560562354874926E-17, 0.7071067811865524577, -0.7071067811865426878 ) ) ;
#168 = ORIENTED_EDGE ( 'NONE', *, *, #188, .T. ) ;
#169 = ORIENTED_EDGE ( 'NONE', *, *, #96, .F. ) ;
#170 = SHAPE_DEFINITION_REPRESENTATION ( #136, #47 ) ;
#171 = ORIENTED_EDGE ( 'NONE', *, *, #96, .T. ) ;
#172 =( NAMED_UNIT ( * ) SI_UNIT ( $, .STERADIAN. ) SOLID_ANGLE_UNIT ( ) );
#173 = ORIENTED_EDGE ( 'NONE', *, *, #12, .T. ) ;
#174 = DIRECTION ( 'NONE',  ( -0.000000000000000000, -1.000000000000000000, -0.000000000000000000 ) ) ;
#175 = APPLICATION_CONTEXT ( 'automotive_design' ) ;
#176 = CONICAL_SURFACE ( 'NONE', #225, 7.499999999999992895, 0.7853981633974552734 ) ;
#177 = EDGE_CURVE ( 'NONE', #82, #49, #208, .T. ) ;
#178 = CARTESIAN_POINT ( 'NONE',  ( 0.000000000000000000, 0.5000000000000004441, 0.000000000000000000 ) ) ;
#179 = AXIS2_PLACEMENT_3D ( 'NONE', #4, #58, #149 ) ;
#180 = DIRECTION ( 'NONE',  ( 0.000000000000000000, -1.000000000000000000, 0.000000000000000000 ) ) ;
#181 = DIRECTION ( 'NONE',  ( 0.000000000000000000, 1.000000000000000000, 0.000000000000000000 ) ) ;
#182 = CARTESIAN_POINT ( 'NONE',  ( 0.000000000000000000, 100.0000000000000000, 0.000000000000000000 ) ) ;
#183 = DIRECTION ( 'NONE',  ( 0.000000000000000000, 0.000000000000000000, -1.000000000000000000 ) ) ;
#184 = ADVANCED_FACE ( 'NONE', ( #125 ), #164, .T. ) ;
#185 = ORIENTED_EDGE ( 'NONE', *, *, #79, .T. ) ;
#186 =( NAMED_UNIT ( * ) PLANE_ANGLE_UNIT ( ) SI_UNIT ( $, .RADIAN. ) );
#187 = VERTEX_POINT ( 'NONE', #29 ) ;
#188 = EDGE_CURVE ( 'NONE', #228, #213, #46, .T. ) ;
#189 = SURFACE_STYLE_FILL_AREA ( #138 ) ;
#190 = DIRECTION ( 'NONE',  ( 1.000000000000000000, 0.000000000000000000, 0.000000000000000000 ) ) ;
#191 = EDGE_LOOP ( 'NONE', ( #87, #206, #9, #169 ) ) ;
#192 = CARTESIAN_POINT ( 'NONE',  ( 9.491012693391981871E-16, 100.0000000000000000, 7.499999999999992895 ) ) ;
#193 = EDGE_LOOP ( 'NONE', ( #142, #88, #171, #185 ) ) ;
#194 =( NAMED_UNIT ( * ) SI_UNIT ( $, .STERADIAN. ) SOLID_ANGLE_UNIT ( ) );
#195 = ADVANCED_FACE ( 'NONE', ( #8 ), #226, .T. ) ;
#196 = MECHANICAL_DESIGN_GEOMETRIC_PRESENTATION_REPRESENTATION (  '', ( #133 ), #218 ) ;
#197 = AXIS2_PLACEMENT_3D ( 'NONE', #200, #112, #183 ) ;
#198 = FACE_OUTER_BOUND ( 'NONE', #84, .T. ) ;
#199 = LINE ( 'NONE', #24, #143 ) ;
#200 = CARTESIAN_POINT ( 'NONE',  ( 0.000000000000000000, 100.0000000000000000, 0.000000000000000000 ) ) ;
#201 = DIRECTION ( 'NONE',  ( -0.000000000000000000, 1.000000000000000000, -0.000000000000000000 ) ) ;
#202 = PRODUCT_DEFINITION ( 'UNKNOWN', '', #140, #101 ) ;
#203 = DIRECTION ( 'NONE',  ( -0.000000000000000000, -1.000000000000000000, -0.000000000000000000 ) ) ;
#204 =( GEOMETRIC_REPRESENTATION_CONTEXT ( 3 ) GLOBAL_UNCERTAINTY_ASSIGNED_CONTEXT ( ( #39 ) ) GLOBAL_UNIT_ASSIGNED_CONTEXT ( ( #159, #235, #194 ) ) REPRESENTATION_CONTEXT ( 'NONE', 'WORKASPACE' ) );
#205 = CARTESIAN_POINT ( 'NONE',  ( 9.491012693391991731E-16, 0.000000000000000000, -7.500000000000007105 ) ) ;
#206 = ORIENTED_EDGE ( 'NONE', *, *, #232, .T. ) ;
#207 = VECTOR ( 'NONE', #174, 1000.000000000000000 ) ;
#208 = CIRCLE ( 'NONE', #70, 7.499999999999992895 ) ;
#209 = PRODUCT ( 'Axe16', 'Axe16', '', ( #11 ) ) ;
#210 = DIRECTION ( 'NONE',  ( 0.000000000000000000, 0.000000000000000000, 1.000000000000000000 ) ) ;
#211 = VERTEX_POINT ( 'NONE', #223 ) ;
#212 = DIRECTION ( 'NONE',  ( 0.000000000000000000, 0.000000000000000000, 1.000000000000000000 ) ) ;
#213 = VERTEX_POINT ( 'NONE', #129 ) ;
#214 = AXIS2_PLACEMENT_3D ( 'NONE', #3, #54, #239 ) ;
#215 =( GEOMETRIC_REPRESENTATION_CONTEXT ( 3 ) GLOBAL_UNCERTAINTY_ASSIGNED_CONTEXT ( ( #162 ) ) GLOBAL_UNIT_ASSIGNED_CONTEXT ( ( #80, #150, #230 ) ) REPRESENTATION_CONTEXT ( 'NONE', 'WORKASPACE' ) );
#216 = STYLED_ITEM ( 'NONE', ( #17 ), #113 ) ;
#217 = DIRECTION ( 'NONE',  ( 0.000000000000000000, 0.000000000000000000, 1.000000000000000000 ) ) ;
#218 =( GEOMETRIC_REPRESENTATION_CONTEXT ( 3 ) GLOBAL_UNCERTAINTY_ASSIGNED_CONTEXT ( ( #19 ) ) GLOBAL_UNIT_ASSIGNED_CONTEXT ( ( #33, #186, #172 ) ) REPRESENTATION_CONTEXT ( 'NONE', 'WORKASPACE' ) );
#219 = CARTESIAN_POINT ( 'NONE',  ( 0.000000000000000000, 99.50000000000000000, 0.000000000000000000 ) ) ;
#220 = FACE_OUTER_BOUND ( 'NONE', #193, .T. ) ;
#221 = EDGE_CURVE ( 'NONE', #82, #119, #60, .T. ) ;
#222 = CARTESIAN_POINT ( 'NONE',  ( 0.000000000000000000, 100.0000000000000000, 0.000000000000000000 ) ) ;
#223 = CARTESIAN_POINT ( 'NONE',  ( 9.797174393178825657E-16, 0.5000000000000004441, 8.000000000000000000 ) ) ;
#224 = LINE ( 'NONE', #131, #27 ) ;
#225 = AXIS2_PLACEMENT_3D ( 'NONE', #111, #180, #92 ) ;
#226 = CONICAL_SURFACE ( 'NONE', #2, 7.499999999999992895, 0.7853981633974552734 ) ;
#227 = PRESENTATION_STYLE_ASSIGNMENT (( #65 ) ) ;
#228 = VERTEX_POINT ( 'NONE', #205 ) ;
#229 = EDGE_CURVE ( 'NONE', #187, #211, #62, .T. ) ;
#230 =( NAMED_UNIT ( * ) SI_UNIT ( $, .STERADIAN. ) SOLID_ANGLE_UNIT ( ) );
#231 = ORIENTED_EDGE ( 'NONE', *, *, #59, .F. ) ;
#232 = EDGE_CURVE ( 'NONE', #119, #211, #224, .T. ) ;
#233 = SURFACE_SIDE_STYLE ('',( #189 ) ) ;
#234 = ORIENTED_EDGE ( 'NONE', *, *, #221, .T. ) ;
#235 =( NAMED_UNIT ( * ) PLANE_ANGLE_UNIT ( ) SI_UNIT ( $, .RADIAN. ) );
#236 = CIRCLE ( 'NONE', #90, 7.500000000000007105 ) ;
#237 = LINE ( 'NONE', #21, #207 ) ;
#238 = CONICAL_SURFACE ( 'NONE', #130, 8.000000000000000000, 0.7853981633974415066 ) ;
#239 = DIRECTION ( 'NONE',  ( 0.000000000000000000, 0.000000000000000000, 1.000000000000000000 ) ) ;
#240 = DIRECTION ( 'NONE',  ( 0.000000000000000000, -0.7071067811865426878, -0.7071067811865524577 ) ) ;
ENDSEC;
END-ISO-10303-21;
