ISO-10303-21;
HEADER;
/* Generated by software containing ST-Developer
 * from STEP Tools, Inc. (www.steptools.com) 
 */

FILE_DESCRIPTION(
/* description */ (''),
/* implementation_level */ '2;1');

FILE_NAME(
/* name */ 'D:\\documents\\inventor\\projets\\moto\\fourchette tl2.stp',

/* time_stamp */ '2021-04-05T18:32:56+02:00',
/* author */ ('the-v'),
/* organization */ (''),
/* preprocessor_version */ 'ST-DEVELOPER v18',
/* originating_system */ 'Autodesk Inventor 2020',
/* authorisation */ '');

FILE_SCHEMA (('AUTOMOTIVE_DESIGN { 1 0 10303 214 3 1 1 }'));
ENDSEC;

DATA;
#10=MECHANICAL_DESIGN_GEOMETRIC_PRESENTATION_REPRESENTATION('',(#13),#596);
#11=SHAPE_REPRESENTATION_RELATIONSHIP('SRR','None',#603,#12);
#12=ADVANCED_BREP_SHAPE_REPRESENTATION('',(#14),#595);
#13=STYLED_ITEM('',(#612),#14);
#14=MANIFOLD_SOLID_BREP('Solide1',#340);
#15=FACE_BOUND('',#50,.T.);
#16=FACE_BOUND('',#51,.T.);
#17=FACE_BOUND('',#64,.T.);
#18=FACE_BOUND('',#65,.T.);
#19=PLANE('',#371);
#20=PLANE('',#372);
#21=PLANE('',#380);
#22=PLANE('',#383);
#23=PLANE('',#386);
#24=PLANE('',#389);
#25=PLANE('',#392);
#26=PLANE('',#393);
#27=PLANE('',#394);
#28=FACE_OUTER_BOUND('',#45,.T.);
#29=FACE_OUTER_BOUND('',#46,.T.);
#30=FACE_OUTER_BOUND('',#47,.T.);
#31=FACE_OUTER_BOUND('',#48,.T.);
#32=FACE_OUTER_BOUND('',#49,.T.);
#33=FACE_OUTER_BOUND('',#52,.T.);
#34=FACE_OUTER_BOUND('',#53,.T.);
#35=FACE_OUTER_BOUND('',#54,.T.);
#36=FACE_OUTER_BOUND('',#55,.T.);
#37=FACE_OUTER_BOUND('',#56,.T.);
#38=FACE_OUTER_BOUND('',#57,.T.);
#39=FACE_OUTER_BOUND('',#58,.T.);
#40=FACE_OUTER_BOUND('',#59,.T.);
#41=FACE_OUTER_BOUND('',#60,.T.);
#42=FACE_OUTER_BOUND('',#61,.T.);
#43=FACE_OUTER_BOUND('',#62,.T.);
#44=FACE_OUTER_BOUND('',#63,.T.);
#45=EDGE_LOOP('',(#221,#222,#223,#224,#225));
#46=EDGE_LOOP('',(#226,#227,#228,#229,#230));
#47=EDGE_LOOP('',(#231,#232,#233,#234));
#48=EDGE_LOOP('',(#235,#236,#237,#238));
#49=EDGE_LOOP('',(#239,#240,#241,#242,#243,#244,#245,#246,#247,#248,#249,
#250,#251));
#50=EDGE_LOOP('',(#252));
#51=EDGE_LOOP('',(#253));
#52=EDGE_LOOP('',(#254,#255,#256,#257));
#53=EDGE_LOOP('',(#258,#259,#260,#261));
#54=EDGE_LOOP('',(#262,#263,#264,#265));
#55=EDGE_LOOP('',(#266,#267,#268,#269));
#56=EDGE_LOOP('',(#270,#271,#272,#273));
#57=EDGE_LOOP('',(#274,#275,#276,#277));
#58=EDGE_LOOP('',(#278,#279,#280,#281));
#59=EDGE_LOOP('',(#282,#283,#284,#285));
#60=EDGE_LOOP('',(#286,#287,#288,#289));
#61=EDGE_LOOP('',(#290,#291,#292,#293));
#62=EDGE_LOOP('',(#294,#295,#296,#297));
#63=EDGE_LOOP('',(#298,#299,#300,#301,#302,#303,#304,#305,#306,#307,#308,
#309,#310));
#64=EDGE_LOOP('',(#311,#312));
#65=EDGE_LOOP('',(#313,#314));
#66=LINE('',#503,#95);
#67=LINE('',#511,#96);
#68=LINE('',#518,#97);
#69=LINE('',#521,#98);
#70=LINE('',#524,#99);
#71=LINE('',#526,#100);
#72=LINE('',#527,#101);
#73=LINE('',#530,#102);
#74=LINE('',#534,#103);
#75=LINE('',#538,#104);
#76=LINE('',#542,#105);
#77=LINE('',#546,#106);
#78=LINE('',#548,#107);
#79=LINE('',#553,#108);
#80=LINE('',#556,#109);
#81=LINE('',#557,#110);
#82=LINE('',#562,#111);
#83=LINE('',#563,#112);
#84=LINE('',#566,#113);
#85=LINE('',#567,#114);
#86=LINE('',#571,#115);
#87=LINE('',#574,#116);
#88=LINE('',#575,#117);
#89=LINE('',#578,#118);
#90=LINE('',#582,#119);
#91=LINE('',#583,#120);
#92=LINE('',#587,#121);
#93=LINE('',#589,#122);
#94=LINE('',#591,#123);
#95=VECTOR('',#403,2.75);
#96=VECTOR('',#412,2.75);
#97=VECTOR('',#419,10.);
#98=VECTOR('',#422,10.);
#99=VECTOR('',#425,10.);
#100=VECTOR('',#426,10.);
#101=VECTOR('',#427,10.);
#102=VECTOR('',#430,10.);
#103=VECTOR('',#433,10.);
#104=VECTOR('',#436,10.);
#105=VECTOR('',#439,10.);
#106=VECTOR('',#442,10.);
#107=VECTOR('',#443,10.);
#108=VECTOR('',#450,10.);
#109=VECTOR('',#453,10.);
#110=VECTOR('',#454,10.);
#111=VECTOR('',#459,10.);
#112=VECTOR('',#460,10.);
#113=VECTOR('',#463,10.);
#114=VECTOR('',#464,10.);
#115=VECTOR('',#469,10.);
#116=VECTOR('',#472,10.);
#117=VECTOR('',#473,10.);
#118=VECTOR('',#476,10.);
#119=VECTOR('',#481,10.);
#120=VECTOR('',#482,10.);
#121=VECTOR('',#487,10.);
#122=VECTOR('',#490,10.);
#123=VECTOR('',#493,10.);
#124=CIRCLE('',#361,2.75);
#125=CIRCLE('',#362,2.75);
#126=CIRCLE('',#363,2.75);
#127=CIRCLE('',#365,2.75);
#128=CIRCLE('',#366,2.75);
#129=CIRCLE('',#367,2.75);
#130=CIRCLE('',#369,2.);
#131=CIRCLE('',#370,2.);
#132=CIRCLE('',#373,5.);
#133=CIRCLE('',#374,10.);
#134=CIRCLE('',#375,1.99);
#135=CIRCLE('',#376,2.);
#136=CIRCLE('',#377,5.);
#137=CIRCLE('',#379,5.);
#138=CIRCLE('',#382,2.);
#139=CIRCLE('',#385,1.99);
#140=CIRCLE('',#388,10.);
#141=CIRCLE('',#391,5.);
#142=VERTEX_POINT('',#498);
#143=VERTEX_POINT('',#499);
#144=VERTEX_POINT('',#502);
#145=VERTEX_POINT('',#506);
#146=VERTEX_POINT('',#507);
#147=VERTEX_POINT('',#510);
#148=VERTEX_POINT('',#514);
#149=VERTEX_POINT('',#515);
#150=VERTEX_POINT('',#517);
#151=VERTEX_POINT('',#519);
#152=VERTEX_POINT('',#523);
#153=VERTEX_POINT('',#525);
#154=VERTEX_POINT('',#529);
#155=VERTEX_POINT('',#531);
#156=VERTEX_POINT('',#533);
#157=VERTEX_POINT('',#535);
#158=VERTEX_POINT('',#537);
#159=VERTEX_POINT('',#539);
#160=VERTEX_POINT('',#541);
#161=VERTEX_POINT('',#543);
#162=VERTEX_POINT('',#545);
#163=VERTEX_POINT('',#547);
#164=VERTEX_POINT('',#551);
#165=VERTEX_POINT('',#555);
#166=VERTEX_POINT('',#559);
#167=VERTEX_POINT('',#560);
#168=VERTEX_POINT('',#565);
#169=VERTEX_POINT('',#569);
#170=VERTEX_POINT('',#573);
#171=VERTEX_POINT('',#577);
#172=VERTEX_POINT('',#581);
#173=VERTEX_POINT('',#585);
#174=EDGE_CURVE('',#142,#143,#124,.T.);
#175=EDGE_CURVE('',#143,#142,#125,.T.);
#176=EDGE_CURVE('',#143,#144,#66,.T.);
#177=EDGE_CURVE('',#144,#144,#126,.T.);
#178=EDGE_CURVE('',#145,#146,#127,.T.);
#179=EDGE_CURVE('',#146,#145,#128,.T.);
#180=EDGE_CURVE('',#146,#147,#67,.T.);
#181=EDGE_CURVE('',#147,#147,#129,.T.);
#182=EDGE_CURVE('',#148,#149,#130,.T.);
#183=EDGE_CURVE('',#149,#150,#68,.T.);
#184=EDGE_CURVE('',#150,#151,#131,.T.);
#185=EDGE_CURVE('',#151,#148,#69,.T.);
#186=EDGE_CURVE('',#151,#152,#70,.T.);
#187=EDGE_CURVE('',#153,#152,#71,.T.);
#188=EDGE_CURVE('',#148,#153,#72,.T.);
#189=EDGE_CURVE('',#154,#150,#73,.T.);
#190=EDGE_CURVE('',#155,#154,#132,.T.);
#191=EDGE_CURVE('',#156,#155,#74,.T.);
#192=EDGE_CURVE('',#157,#156,#133,.T.);
#193=EDGE_CURVE('',#158,#157,#75,.T.);
#194=EDGE_CURVE('',#159,#158,#134,.T.);
#195=EDGE_CURVE('',#160,#159,#76,.T.);
#196=EDGE_CURVE('',#161,#160,#135,.T.);
#197=EDGE_CURVE('',#162,#161,#77,.T.);
#198=EDGE_CURVE('',#163,#162,#78,.T.);
#199=EDGE_CURVE('',#152,#163,#136,.T.);
#200=EDGE_CURVE('',#164,#153,#137,.T.);
#201=EDGE_CURVE('',#163,#164,#79,.T.);
#202=EDGE_CURVE('',#162,#165,#80,.T.);
#203=EDGE_CURVE('',#164,#165,#81,.T.);
#204=EDGE_CURVE('',#166,#167,#138,.T.);
#205=EDGE_CURVE('',#167,#161,#82,.T.);
#206=EDGE_CURVE('',#160,#166,#83,.T.);
#207=EDGE_CURVE('',#168,#159,#84,.T.);
#208=EDGE_CURVE('',#166,#168,#85,.T.);
#209=EDGE_CURVE('',#169,#168,#139,.T.);
#210=EDGE_CURVE('',#158,#169,#86,.T.);
#211=EDGE_CURVE('',#170,#157,#87,.T.);
#212=EDGE_CURVE('',#169,#170,#88,.T.);
#213=EDGE_CURVE('',#156,#171,#89,.T.);
#214=EDGE_CURVE('',#171,#170,#140,.T.);
#215=EDGE_CURVE('',#172,#155,#90,.T.);
#216=EDGE_CURVE('',#171,#172,#91,.T.);
#217=EDGE_CURVE('',#173,#172,#141,.T.);
#218=EDGE_CURVE('',#154,#173,#92,.T.);
#219=EDGE_CURVE('',#165,#167,#93,.T.);
#220=EDGE_CURVE('',#173,#149,#94,.T.);
#221=ORIENTED_EDGE('',*,*,#174,.F.);
#222=ORIENTED_EDGE('',*,*,#175,.F.);
#223=ORIENTED_EDGE('',*,*,#176,.T.);
#224=ORIENTED_EDGE('',*,*,#177,.F.);
#225=ORIENTED_EDGE('',*,*,#176,.F.);
#226=ORIENTED_EDGE('',*,*,#178,.F.);
#227=ORIENTED_EDGE('',*,*,#179,.F.);
#228=ORIENTED_EDGE('',*,*,#180,.T.);
#229=ORIENTED_EDGE('',*,*,#181,.F.);
#230=ORIENTED_EDGE('',*,*,#180,.F.);
#231=ORIENTED_EDGE('',*,*,#182,.T.);
#232=ORIENTED_EDGE('',*,*,#183,.T.);
#233=ORIENTED_EDGE('',*,*,#184,.T.);
#234=ORIENTED_EDGE('',*,*,#185,.T.);
#235=ORIENTED_EDGE('',*,*,#185,.F.);
#236=ORIENTED_EDGE('',*,*,#186,.T.);
#237=ORIENTED_EDGE('',*,*,#187,.F.);
#238=ORIENTED_EDGE('',*,*,#188,.F.);
#239=ORIENTED_EDGE('',*,*,#184,.F.);
#240=ORIENTED_EDGE('',*,*,#189,.F.);
#241=ORIENTED_EDGE('',*,*,#190,.F.);
#242=ORIENTED_EDGE('',*,*,#191,.F.);
#243=ORIENTED_EDGE('',*,*,#192,.F.);
#244=ORIENTED_EDGE('',*,*,#193,.F.);
#245=ORIENTED_EDGE('',*,*,#194,.F.);
#246=ORIENTED_EDGE('',*,*,#195,.F.);
#247=ORIENTED_EDGE('',*,*,#196,.F.);
#248=ORIENTED_EDGE('',*,*,#197,.F.);
#249=ORIENTED_EDGE('',*,*,#198,.F.);
#250=ORIENTED_EDGE('',*,*,#199,.F.);
#251=ORIENTED_EDGE('',*,*,#186,.F.);
#252=ORIENTED_EDGE('',*,*,#177,.T.);
#253=ORIENTED_EDGE('',*,*,#181,.T.);
#254=ORIENTED_EDGE('',*,*,#200,.T.);
#255=ORIENTED_EDGE('',*,*,#187,.T.);
#256=ORIENTED_EDGE('',*,*,#199,.T.);
#257=ORIENTED_EDGE('',*,*,#201,.T.);
#258=ORIENTED_EDGE('',*,*,#201,.F.);
#259=ORIENTED_EDGE('',*,*,#198,.T.);
#260=ORIENTED_EDGE('',*,*,#202,.T.);
#261=ORIENTED_EDGE('',*,*,#203,.F.);
#262=ORIENTED_EDGE('',*,*,#204,.T.);
#263=ORIENTED_EDGE('',*,*,#205,.T.);
#264=ORIENTED_EDGE('',*,*,#196,.T.);
#265=ORIENTED_EDGE('',*,*,#206,.T.);
#266=ORIENTED_EDGE('',*,*,#206,.F.);
#267=ORIENTED_EDGE('',*,*,#195,.T.);
#268=ORIENTED_EDGE('',*,*,#207,.F.);
#269=ORIENTED_EDGE('',*,*,#208,.F.);
#270=ORIENTED_EDGE('',*,*,#209,.T.);
#271=ORIENTED_EDGE('',*,*,#207,.T.);
#272=ORIENTED_EDGE('',*,*,#194,.T.);
#273=ORIENTED_EDGE('',*,*,#210,.T.);
#274=ORIENTED_EDGE('',*,*,#210,.F.);
#275=ORIENTED_EDGE('',*,*,#193,.T.);
#276=ORIENTED_EDGE('',*,*,#211,.F.);
#277=ORIENTED_EDGE('',*,*,#212,.F.);
#278=ORIENTED_EDGE('',*,*,#192,.T.);
#279=ORIENTED_EDGE('',*,*,#213,.T.);
#280=ORIENTED_EDGE('',*,*,#214,.T.);
#281=ORIENTED_EDGE('',*,*,#211,.T.);
#282=ORIENTED_EDGE('',*,*,#213,.F.);
#283=ORIENTED_EDGE('',*,*,#191,.T.);
#284=ORIENTED_EDGE('',*,*,#215,.F.);
#285=ORIENTED_EDGE('',*,*,#216,.F.);
#286=ORIENTED_EDGE('',*,*,#217,.T.);
#287=ORIENTED_EDGE('',*,*,#215,.T.);
#288=ORIENTED_EDGE('',*,*,#190,.T.);
#289=ORIENTED_EDGE('',*,*,#218,.T.);
#290=ORIENTED_EDGE('',*,*,#205,.F.);
#291=ORIENTED_EDGE('',*,*,#219,.F.);
#292=ORIENTED_EDGE('',*,*,#202,.F.);
#293=ORIENTED_EDGE('',*,*,#197,.T.);
#294=ORIENTED_EDGE('',*,*,#183,.F.);
#295=ORIENTED_EDGE('',*,*,#220,.F.);
#296=ORIENTED_EDGE('',*,*,#218,.F.);
#297=ORIENTED_EDGE('',*,*,#189,.T.);
#298=ORIENTED_EDGE('',*,*,#182,.F.);
#299=ORIENTED_EDGE('',*,*,#188,.T.);
#300=ORIENTED_EDGE('',*,*,#200,.F.);
#301=ORIENTED_EDGE('',*,*,#203,.T.);
#302=ORIENTED_EDGE('',*,*,#219,.T.);
#303=ORIENTED_EDGE('',*,*,#204,.F.);
#304=ORIENTED_EDGE('',*,*,#208,.T.);
#305=ORIENTED_EDGE('',*,*,#209,.F.);
#306=ORIENTED_EDGE('',*,*,#212,.T.);
#307=ORIENTED_EDGE('',*,*,#214,.F.);
#308=ORIENTED_EDGE('',*,*,#216,.T.);
#309=ORIENTED_EDGE('',*,*,#217,.F.);
#310=ORIENTED_EDGE('',*,*,#220,.T.);
#311=ORIENTED_EDGE('',*,*,#174,.T.);
#312=ORIENTED_EDGE('',*,*,#175,.T.);
#313=ORIENTED_EDGE('',*,*,#178,.T.);
#314=ORIENTED_EDGE('',*,*,#179,.T.);
#315=CYLINDRICAL_SURFACE('',#360,2.75);
#316=CYLINDRICAL_SURFACE('',#364,2.75);
#317=CYLINDRICAL_SURFACE('',#368,2.);
#318=CYLINDRICAL_SURFACE('',#378,5.);
#319=CYLINDRICAL_SURFACE('',#381,2.);
#320=CYLINDRICAL_SURFACE('',#384,1.99);
#321=CYLINDRICAL_SURFACE('',#387,10.);
#322=CYLINDRICAL_SURFACE('',#390,5.);
#323=ADVANCED_FACE('',(#28),#315,.F.);
#324=ADVANCED_FACE('',(#29),#316,.F.);
#325=ADVANCED_FACE('',(#30),#317,.T.);
#326=ADVANCED_FACE('',(#31),#19,.T.);
#327=ADVANCED_FACE('',(#32,#15,#16),#20,.F.);
#328=ADVANCED_FACE('',(#33),#318,.T.);
#329=ADVANCED_FACE('',(#34),#21,.T.);
#330=ADVANCED_FACE('',(#35),#319,.T.);
#331=ADVANCED_FACE('',(#36),#22,.T.);
#332=ADVANCED_FACE('',(#37),#320,.T.);
#333=ADVANCED_FACE('',(#38),#23,.T.);
#334=ADVANCED_FACE('',(#39),#321,.F.);
#335=ADVANCED_FACE('',(#40),#24,.T.);
#336=ADVANCED_FACE('',(#41),#322,.T.);
#337=ADVANCED_FACE('',(#42),#25,.T.);
#338=ADVANCED_FACE('',(#43),#26,.T.);
#339=ADVANCED_FACE('',(#44,#17,#18),#27,.T.);
#340=CLOSED_SHELL('',(#323,#324,#325,#326,#327,#328,#329,#330,#331,#332,
#333,#334,#335,#336,#337,#338,#339));
#341=DERIVED_UNIT_ELEMENT(#343,1.);
#342=DERIVED_UNIT_ELEMENT(#598,3.);
#343=(
MASS_UNIT()
NAMED_UNIT(*)
SI_UNIT($,.GRAM.)
);
#344=DERIVED_UNIT((#341,#342));
#345=MEASURE_REPRESENTATION_ITEM('density measure',
POSITIVE_RATIO_MEASURE(1.),#344);
#346=PROPERTY_DEFINITION_REPRESENTATION(#351,#348);
#347=PROPERTY_DEFINITION_REPRESENTATION(#352,#349);
#348=REPRESENTATION('material name',(#350),#595);
#349=REPRESENTATION('density',(#345),#595);
#350=DESCRIPTIVE_REPRESENTATION_ITEM('G\X\E9n\X\E9rique','G\X\E9n\X\E9
rique');
#351=PROPERTY_DEFINITION('material property','material name',#605);
#352=PROPERTY_DEFINITION('material property','density of part',#605);
#353=DATE_TIME_ROLE('creation_date');
#354=APPLIED_DATE_AND_TIME_ASSIGNMENT(#355,#353,(#605));
#355=DATE_AND_TIME(#356,#357);
#356=CALENDAR_DATE(2021,5,4);
#357=LOCAL_TIME(15,26,31.,#358);
#358=COORDINATED_UNIVERSAL_TIME_OFFSET(0,0,.BEHIND.);
#359=AXIS2_PLACEMENT_3D('placement',#496,#395,#396);
#360=AXIS2_PLACEMENT_3D('',#497,#397,#398);
#361=AXIS2_PLACEMENT_3D('',#500,#399,#400);
#362=AXIS2_PLACEMENT_3D('',#501,#401,#402);
#363=AXIS2_PLACEMENT_3D('',#504,#404,#405);
#364=AXIS2_PLACEMENT_3D('',#505,#406,#407);
#365=AXIS2_PLACEMENT_3D('',#508,#408,#409);
#366=AXIS2_PLACEMENT_3D('',#509,#410,#411);
#367=AXIS2_PLACEMENT_3D('',#512,#413,#414);
#368=AXIS2_PLACEMENT_3D('',#513,#415,#416);
#369=AXIS2_PLACEMENT_3D('',#516,#417,#418);
#370=AXIS2_PLACEMENT_3D('',#520,#420,#421);
#371=AXIS2_PLACEMENT_3D('',#522,#423,#424);
#372=AXIS2_PLACEMENT_3D('',#528,#428,#429);
#373=AXIS2_PLACEMENT_3D('',#532,#431,#432);
#374=AXIS2_PLACEMENT_3D('',#536,#434,#435);
#375=AXIS2_PLACEMENT_3D('',#540,#437,#438);
#376=AXIS2_PLACEMENT_3D('',#544,#440,#441);
#377=AXIS2_PLACEMENT_3D('',#549,#444,#445);
#378=AXIS2_PLACEMENT_3D('',#550,#446,#447);
#379=AXIS2_PLACEMENT_3D('',#552,#448,#449);
#380=AXIS2_PLACEMENT_3D('',#554,#451,#452);
#381=AXIS2_PLACEMENT_3D('',#558,#455,#456);
#382=AXIS2_PLACEMENT_3D('',#561,#457,#458);
#383=AXIS2_PLACEMENT_3D('',#564,#461,#462);
#384=AXIS2_PLACEMENT_3D('',#568,#465,#466);
#385=AXIS2_PLACEMENT_3D('',#570,#467,#468);
#386=AXIS2_PLACEMENT_3D('',#572,#470,#471);
#387=AXIS2_PLACEMENT_3D('',#576,#474,#475);
#388=AXIS2_PLACEMENT_3D('',#579,#477,#478);
#389=AXIS2_PLACEMENT_3D('',#580,#479,#480);
#390=AXIS2_PLACEMENT_3D('',#584,#483,#484);
#391=AXIS2_PLACEMENT_3D('',#586,#485,#486);
#392=AXIS2_PLACEMENT_3D('',#588,#488,#489);
#393=AXIS2_PLACEMENT_3D('',#590,#491,#492);
#394=AXIS2_PLACEMENT_3D('',#592,#494,#495);
#395=DIRECTION('axis',(0.,0.,1.));
#396=DIRECTION('refdir',(1.,0.,0.));
#397=DIRECTION('center_axis',(0.,0.,1.));
#398=DIRECTION('ref_axis',(1.,0.,0.));
#399=DIRECTION('center_axis',(0.,0.,-1.));
#400=DIRECTION('ref_axis',(1.,0.,0.));
#401=DIRECTION('center_axis',(0.,0.,-1.));
#402=DIRECTION('ref_axis',(1.,0.,0.));
#403=DIRECTION('',(0.,0.,-1.));
#404=DIRECTION('center_axis',(0.,0.,1.));
#405=DIRECTION('ref_axis',(1.,0.,0.));
#406=DIRECTION('center_axis',(0.,0.,1.));
#407=DIRECTION('ref_axis',(1.,0.,0.));
#408=DIRECTION('center_axis',(0.,0.,-1.));
#409=DIRECTION('ref_axis',(1.,0.,0.));
#410=DIRECTION('center_axis',(0.,0.,-1.));
#411=DIRECTION('ref_axis',(1.,0.,0.));
#412=DIRECTION('',(0.,0.,-1.));
#413=DIRECTION('center_axis',(0.,0.,1.));
#414=DIRECTION('ref_axis',(1.,0.,0.));
#415=DIRECTION('center_axis',(0.,0.,1.));
#416=DIRECTION('ref_axis',(0.49954648164074,0.866287084447389,0.));
#417=DIRECTION('center_axis',(0.,0.,-1.));
#418=DIRECTION('ref_axis',(0.49954648164074,0.866287084447389,0.));
#419=DIRECTION('',(0.,0.,-1.));
#420=DIRECTION('center_axis',(0.,0.,1.));
#421=DIRECTION('ref_axis',(0.49954648164074,0.866287084447389,0.));
#422=DIRECTION('',(0.,0.,1.));
#423=DIRECTION('center_axis',(1.07901258558705E-16,1.,0.));
#424=DIRECTION('ref_axis',(-1.,1.07901258558705E-16,0.));
#425=DIRECTION('',(-1.,1.07901258558705E-16,0.));
#426=DIRECTION('',(0.,0.,-1.));
#427=DIRECTION('',(-1.,1.07901258558705E-16,0.));
#428=DIRECTION('center_axis',(0.,0.,1.));
#429=DIRECTION('ref_axis',(1.,0.,0.));
#430=DIRECTION('',(-0.50090662536071,0.865501330253019,0.));
#431=DIRECTION('center_axis',(0.,0.,1.));
#432=DIRECTION('ref_axis',(0.591239270544241,-0.806496202698013,0.));
#433=DIRECTION('',(0.674688949446331,-0.738102175511633,0.));
#434=DIRECTION('center_axis',(0.,0.,-1.));
#435=DIRECTION('ref_axis',(-0.229115446685139,0.973399256261412,0.));
#436=DIRECTION('',(0.274630573971857,0.961549815578937,0.));
#437=DIRECTION('center_axis',(0.,0.,1.));
#438=DIRECTION('ref_axis',(0.537814706582849,-0.843063070821635,0.));
#439=DIRECTION('',(0.987715628516431,-0.156262078523203,0.));
#440=DIRECTION('center_axis',(0.,0.,1.));
#441=DIRECTION('ref_axis',(-0.814166686055757,-0.580631214556181,0.));
#442=DIRECTION('',(-0.17399360855271,-0.984746781758035,0.));
#443=DIRECTION('',(2.46456079610446E-16,-1.,0.));
#444=DIRECTION('center_axis',(0.,0.,1.));
#445=DIRECTION('ref_axis',(-0.707106781186547,0.707106781186547,0.));
#446=DIRECTION('center_axis',(0.,0.,1.));
#447=DIRECTION('ref_axis',(-0.707106781186547,0.707106781186547,0.));
#448=DIRECTION('center_axis',(0.,0.,-1.));
#449=DIRECTION('ref_axis',(-0.707106781186547,0.707106781186547,0.));
#450=DIRECTION('',(0.,0.,1.));
#451=DIRECTION('center_axis',(-1.,-2.46456079610446E-16,0.));
#452=DIRECTION('ref_axis',(2.46456079610446E-16,-1.,0.));
#453=DIRECTION('',(0.,0.,1.));
#454=DIRECTION('',(2.46456079610446E-16,-1.,0.));
#455=DIRECTION('center_axis',(0.,0.,1.));
#456=DIRECTION('ref_axis',(-0.814166686055757,-0.580631214556181,0.));
#457=DIRECTION('center_axis',(0.,0.,-1.));
#458=DIRECTION('ref_axis',(-0.814166686055757,-0.580631214556181,0.));
#459=DIRECTION('',(0.,0.,-1.));
#460=DIRECTION('',(0.,0.,1.));
#461=DIRECTION('center_axis',(-0.156262078523203,-0.987715628516431,0.));
#462=DIRECTION('ref_axis',(0.987715628516431,-0.156262078523203,0.));
#463=DIRECTION('',(0.,0.,-1.));
#464=DIRECTION('',(0.987715628516431,-0.156262078523203,0.));
#465=DIRECTION('center_axis',(0.,0.,1.));
#466=DIRECTION('ref_axis',(0.537814706582849,-0.843063070821635,0.));
#467=DIRECTION('center_axis',(0.,0.,-1.));
#468=DIRECTION('ref_axis',(0.537814706582849,-0.843063070821635,0.));
#469=DIRECTION('',(0.,0.,1.));
#470=DIRECTION('center_axis',(0.961549815578937,-0.274630573971857,0.));
#471=DIRECTION('ref_axis',(0.274630573971857,0.961549815578937,0.));
#472=DIRECTION('',(0.,0.,-1.));
#473=DIRECTION('',(0.274630573971857,0.961549815578937,0.));
#474=DIRECTION('center_axis',(0.,0.,1.));
#475=DIRECTION('ref_axis',(-0.229115446685139,0.973399256261412,0.));
#476=DIRECTION('',(0.,0.,1.));
#477=DIRECTION('center_axis',(0.,0.,1.));
#478=DIRECTION('ref_axis',(-0.229115446685139,0.973399256261412,0.));
#479=DIRECTION('center_axis',(-0.738102175511633,-0.674688949446331,0.));
#480=DIRECTION('ref_axis',(0.674688949446331,-0.738102175511633,0.));
#481=DIRECTION('',(0.,0.,-1.));
#482=DIRECTION('',(0.674688949446331,-0.738102175511633,0.));
#483=DIRECTION('center_axis',(0.,0.,1.));
#484=DIRECTION('ref_axis',(0.591239270544241,-0.806496202698013,0.));
#485=DIRECTION('center_axis',(0.,0.,-1.));
#486=DIRECTION('ref_axis',(0.591239270544241,-0.806496202698013,0.));
#487=DIRECTION('',(0.,0.,1.));
#488=DIRECTION('center_axis',(-0.984746781758035,0.17399360855271,0.));
#489=DIRECTION('ref_axis',(-0.17399360855271,-0.984746781758035,0.));
#490=DIRECTION('',(-0.17399360855271,-0.984746781758035,0.));
#491=DIRECTION('center_axis',(0.865501330253019,0.50090662536071,0.));
#492=DIRECTION('ref_axis',(-0.50090662536071,0.865501330253019,0.));
#493=DIRECTION('',(-0.50090662536071,0.865501330253019,0.));
#494=DIRECTION('center_axis',(0.,0.,1.));
#495=DIRECTION('ref_axis',(1.,0.,0.));
#496=CARTESIAN_POINT('',(0.,0.,0.));
#497=CARTESIAN_POINT('Origin',(-21.0629826278267,22.0081766485865,-100.057331876638));
#498=CARTESIAN_POINT('',(-18.3129826278267,22.0081766485865,4.));
#499=CARTESIAN_POINT('',(-23.8129826278267,22.0081766485865,4.));
#500=CARTESIAN_POINT('Origin',(-21.0629826278267,22.0081766485865,4.));
#501=CARTESIAN_POINT('Origin',(-21.0629826278267,22.0081766485865,4.));
#502=CARTESIAN_POINT('',(-23.8129826278267,22.0081766485865,0.));
#503=CARTESIAN_POINT('',(-23.8129826278267,22.0081766485865,-100.057331876638));
#504=CARTESIAN_POINT('Origin',(-21.0629826278267,22.0081766485865,0.));
#505=CARTESIAN_POINT('Origin',(-1.0629826278267,22.0081766485865,-100.057331876638));
#506=CARTESIAN_POINT('',(1.6870173721733,22.0081766485865,4.));
#507=CARTESIAN_POINT('',(-3.8129826278267,22.0081766485865,4.));
#508=CARTESIAN_POINT('Origin',(-1.0629826278267,22.0081766485865,4.));
#509=CARTESIAN_POINT('Origin',(-1.0629826278267,22.0081766485865,4.));
#510=CARTESIAN_POINT('',(-3.8129826278267,22.0081766485865,0.));
#511=CARTESIAN_POINT('',(-3.8129826278267,22.0081766485865,-100.057331876638));
#512=CARTESIAN_POINT('Origin',(-1.0629826278267,22.0081766485865,0.));
#513=CARTESIAN_POINT('Origin',(8.94071267536045,25.5081766485865,0.));
#514=CARTESIAN_POINT('',(8.94071267536045,27.5081766485865,4.));
#515=CARTESIAN_POINT('',(10.6717153358665,26.5099898993079,4.));
#516=CARTESIAN_POINT('Origin',(8.94071267536045,25.5081766485865,4.));
#517=CARTESIAN_POINT('',(10.6717153358665,26.5099898993079,0.));
#518=CARTESIAN_POINT('',(10.6717153358665,26.509989899308,0.));
#519=CARTESIAN_POINT('',(8.94071267536045,27.5081766485865,0.));
#520=CARTESIAN_POINT('Origin',(8.94071267536045,25.5081766485865,0.));
#521=CARTESIAN_POINT('',(8.94071267536045,27.5081766485865,0.));
#522=CARTESIAN_POINT('Origin',(10.0940173721733,27.5081766485865,0.));
#523=CARTESIAN_POINT('',(-26.0629826278267,27.5081766485866,0.));
#524=CARTESIAN_POINT('',(10.0940173721733,27.5081766485865,0.));
#525=CARTESIAN_POINT('',(-26.0629826278267,27.5081766485866,4.));
#526=CARTESIAN_POINT('',(-26.0629826278267,27.5081766485866,0.));
#527=CARTESIAN_POINT('',(10.0940173721733,27.5081766485865,4.));
#528=CARTESIAN_POINT('Origin',(16.5160689083532,-22.2148233514135,0.));
#529=CARTESIAN_POINT('',(44.5371589662771,-32.0050806302984,0.));
#530=CARTESIAN_POINT('',(67.6481291042245,-71.9378233514135,0.));
#531=CARTESIAN_POINT('',(36.5191414374539,-37.8830585043335,0.));
#532=CARTESIAN_POINT('Origin',(40.209652315012,-34.5096137571019,0.));
#533=CARTESIAN_POINT('',(-3.62630876727069,6.03561565998697,0.));
#534=CARTESIAN_POINT('',(-15.7058708957755,19.2505217194297,0.));
#535=CARTESIAN_POINT('',(-20.6228286781764,2.03503190524224,0.));
#536=CARTESIAN_POINT('Origin',(-11.007330522387,-0.711273834476334,0.));
#537=CARTESIAN_POINT('',(-24.2019301276132,-10.4962907689657,0.));
#538=CARTESIAN_POINT('',(-24.6858708957755,-12.1906875349474,0.));
#539=CARTESIAN_POINT('',(-26.4263757968765,-11.9153300275094,0.));
#540=CARTESIAN_POINT('Origin',(-26.1154142606153,-9.94977592676171,0.));
#541=CARTESIAN_POINT('',(-32.60472142067,-10.9378815584001,0.));
#542=CARTESIAN_POINT('',(-34.615991287518,-10.6196875349474,0.));
#543=CARTESIAN_POINT('',(-34.2616908271397,-8.61446308426182,0.));
#544=CARTESIAN_POINT('Origin',(-32.2921972636236,-8.96245030136724,0.));
#545=CARTESIAN_POINT('',(-31.0629826278267,9.48917664858655,0.));
#546=CARTESIAN_POINT('',(-31.0629826278267,9.48917664858655,0.));
#547=CARTESIAN_POINT('',(-31.0629826278267,22.5081766485865,0.));
#548=CARTESIAN_POINT('',(-31.0629826278267,27.5081766485866,0.));
#549=CARTESIAN_POINT('Origin',(-26.0629826278267,22.5081766485865,0.));
#550=CARTESIAN_POINT('Origin',(-26.0629826278267,22.5081766485865,0.));
#551=CARTESIAN_POINT('',(-31.0629826278267,22.5081766485865,4.));
#552=CARTESIAN_POINT('Origin',(-26.0629826278267,22.5081766485865,4.));
#553=CARTESIAN_POINT('',(-31.0629826278267,22.5081766485865,0.));
#554=CARTESIAN_POINT('Origin',(-31.0629826278267,27.5081766485866,0.));
#555=CARTESIAN_POINT('',(-31.0629826278267,9.48917664858655,4.));
#556=CARTESIAN_POINT('',(-31.0629826278267,9.48917664858655,0.));
#557=CARTESIAN_POINT('',(-31.0629826278267,27.5081766485866,4.));
#558=CARTESIAN_POINT('Origin',(-32.2921972636236,-8.96245030136724,0.));
#559=CARTESIAN_POINT('',(-32.60472142067,-10.9378815584001,4.));
#560=CARTESIAN_POINT('',(-34.2616908271397,-8.61446308426182,4.));
#561=CARTESIAN_POINT('Origin',(-32.2921972636236,-8.96245030136724,4.));
#562=CARTESIAN_POINT('',(-34.2616908271397,-8.61446308426182,0.));
#563=CARTESIAN_POINT('',(-32.60472142067,-10.9378815584001,0.));
#564=CARTESIAN_POINT('Origin',(-34.615991287518,-10.6196875349474,0.));
#565=CARTESIAN_POINT('',(-26.4263757968765,-11.9153300275094,4.));
#566=CARTESIAN_POINT('',(-26.4263757968765,-11.9153300275094,0.));
#567=CARTESIAN_POINT('',(-34.615991287518,-10.6196875349474,4.));
#568=CARTESIAN_POINT('Origin',(-26.1154142606153,-9.94977592676171,0.));
#569=CARTESIAN_POINT('',(-24.2019301276132,-10.4962907689657,4.));
#570=CARTESIAN_POINT('Origin',(-26.1154142606153,-9.94977592676171,4.));
#571=CARTESIAN_POINT('',(-24.2019301276132,-10.4962907689657,0.));
#572=CARTESIAN_POINT('Origin',(-24.6858708957755,-12.1906875349474,0.));
#573=CARTESIAN_POINT('',(-20.6228286781764,2.03503190524224,4.));
#574=CARTESIAN_POINT('',(-20.6228286781764,2.03503190524224,0.));
#575=CARTESIAN_POINT('',(-24.6858708957755,-12.1906875349474,4.));
#576=CARTESIAN_POINT('Origin',(-11.007330522387,-0.711273834476334,0.));
#577=CARTESIAN_POINT('',(-3.62630876727069,6.03561565998697,4.));
#578=CARTESIAN_POINT('',(-3.62630876727069,6.03561565998698,0.));
#579=CARTESIAN_POINT('Origin',(-11.007330522387,-0.711273834476334,4.));
#580=CARTESIAN_POINT('Origin',(-15.7058708957755,19.2505217194297,0.));
#581=CARTESIAN_POINT('',(36.5191414374539,-37.8830585043335,4.));
#582=CARTESIAN_POINT('',(36.5191414374539,-37.8830585043335,0.));
#583=CARTESIAN_POINT('',(-15.7058708957755,19.2505217194297,4.));
#584=CARTESIAN_POINT('Origin',(40.209652315012,-34.5096137571019,0.));
#585=CARTESIAN_POINT('',(44.5371589662771,-32.0050806302984,4.));
#586=CARTESIAN_POINT('Origin',(40.209652315012,-34.5096137571019,4.));
#587=CARTESIAN_POINT('',(44.5371589662771,-32.0050806302983,0.));
#588=CARTESIAN_POINT('Origin',(-31.0629826278267,9.48917664858655,0.));
#589=CARTESIAN_POINT('',(-31.0629826278267,9.48917664858655,4.));
#590=CARTESIAN_POINT('Origin',(67.6481291042245,-71.9378233514135,0.));
#591=CARTESIAN_POINT('',(67.6481291042245,-71.9378233514135,4.));
#592=CARTESIAN_POINT('Origin',(16.5160689083532,-22.2148233514135,4.));
#593=UNCERTAINTY_MEASURE_WITH_UNIT(LENGTH_MEASURE(0.01),#597,
'DISTANCE_ACCURACY_VALUE',
'Maximum model space distance between geometric entities at asserted c
onnectivities');
#594=UNCERTAINTY_MEASURE_WITH_UNIT(LENGTH_MEASURE(0.01),#597,
'DISTANCE_ACCURACY_VALUE',
'Maximum model space distance between geometric entities at asserted c
onnectivities');
#595=(
GEOMETRIC_REPRESENTATION_CONTEXT(3)
GLOBAL_UNCERTAINTY_ASSIGNED_CONTEXT((#593))
GLOBAL_UNIT_ASSIGNED_CONTEXT((#597,#599,#600))
REPRESENTATION_CONTEXT('','3D')
);
#596=(
GEOMETRIC_REPRESENTATION_CONTEXT(3)
GLOBAL_UNCERTAINTY_ASSIGNED_CONTEXT((#594))
GLOBAL_UNIT_ASSIGNED_CONTEXT((#597,#599,#600))
REPRESENTATION_CONTEXT('','3D')
);
#597=(
LENGTH_UNIT()
NAMED_UNIT(*)
SI_UNIT(.MILLI.,.METRE.)
);
#598=(
LENGTH_UNIT()
NAMED_UNIT(*)
SI_UNIT(.CENTI.,.METRE.)
);
#599=(
NAMED_UNIT(*)
PLANE_ANGLE_UNIT()
SI_UNIT($,.RADIAN.)
);
#600=(
NAMED_UNIT(*)
SI_UNIT($,.STERADIAN.)
SOLID_ANGLE_UNIT()
);
#601=SHAPE_DEFINITION_REPRESENTATION(#602,#603);
#602=PRODUCT_DEFINITION_SHAPE('',$,#605);
#603=SHAPE_REPRESENTATION('',(#359),#595);
#604=PRODUCT_DEFINITION_CONTEXT('part definition',#609,'design');
#605=PRODUCT_DEFINITION('fourchette tl','fourchette tl',#606,#604);
#606=PRODUCT_DEFINITION_FORMATION('',$,#611);
#607=PRODUCT_RELATED_PRODUCT_CATEGORY('fourchette tl','fourchette tl',(#611));
#608=APPLICATION_PROTOCOL_DEFINITION('international standard',
'automotive_design',2009,#609);
#609=APPLICATION_CONTEXT(
'Core Data for Automotive Mechanical Design Process');
#610=PRODUCT_CONTEXT('part definition',#609,'mechanical');
#611=PRODUCT('fourchette tl','fourchette tl',$,(#610));
#612=PRESENTATION_STYLE_ASSIGNMENT((#613));
#613=SURFACE_STYLE_USAGE(.BOTH.,#616);
#614=SURFACE_STYLE_RENDERING_WITH_PROPERTIES($,#620,(#615));
#615=SURFACE_STYLE_TRANSPARENT(0.);
#616=SURFACE_SIDE_STYLE('',(#617,#614));
#617=SURFACE_STYLE_FILL_AREA(#618);
#618=FILL_AREA_STYLE('',(#619));
#619=FILL_AREA_STYLE_COLOUR('',#620);
#620=COLOUR_RGB('',0.749019607843137,0.749019607843137,0.749019607843137);
ENDSEC;
END-ISO-10303-21;
