ISO-10303-21;
HEADER;
/* Generated by software containing ST-Developer
 * from STEP Tools, Inc. (www.steptools.com) 
 */

FILE_DESCRIPTION(
/* description */ (''),
/* implementation_level */ '2;1');

FILE_NAME(
/* name */ 
'E:\\stephane_larhant\\step\\chariot_blocage_angulaire_levier.stp',
/* time_stamp */ '2021-03-29T18:27:50+02:00',
/* author */ ('Utilisateur'),
/* organization */ (''),
/* preprocessor_version */ 'ST-DEVELOPER v16.5',
/* originating_system */ 'Autodesk Inventor 2017',
/* authorisation */ '');

FILE_SCHEMA (('AUTOMOTIVE_DESIGN { 1 0 10303 214 3 1 1 }'));
ENDSEC;

DATA;
#10=MECHANICAL_DESIGN_GEOMETRIC_PRESENTATION_REPRESENTATION('',(#13),#550);
#11=SHAPE_REPRESENTATION_RELATIONSHIP('SRR','None',#559,#12);
#12=ADVANCED_BREP_SHAPE_REPRESENTATION('',(#14),#549);
#13=STYLED_ITEM('',(#568),#14);
#14=MANIFOLD_SOLID_BREP('Solide1',#336);
#15=FACE_BOUND('',#53,.T.);
#16=FACE_BOUND('',#56,.T.);
#17=FACE_BOUND('',#58,.T.);
#18=FACE_BOUND('',#63,.T.);
#19=FACE_BOUND('',#69,.T.);
#20=CIRCLE('',#350,2.5);
#21=CIRCLE('',#351,2.5);
#22=CIRCLE('',#354,3.);
#23=CIRCLE('',#355,3.);
#24=CIRCLE('',#357,6.);
#25=CIRCLE('',#364,6.);
#26=CYLINDRICAL_SURFACE('',#349,2.5);
#27=CYLINDRICAL_SURFACE('',#353,3.);
#28=CYLINDRICAL_SURFACE('',#363,6.);
#29=FACE_OUTER_BOUND('',#47,.T.);
#30=FACE_OUTER_BOUND('',#48,.T.);
#31=FACE_OUTER_BOUND('',#49,.T.);
#32=FACE_OUTER_BOUND('',#50,.T.);
#33=FACE_OUTER_BOUND('',#51,.T.);
#34=FACE_OUTER_BOUND('',#52,.T.);
#35=FACE_OUTER_BOUND('',#54,.T.);
#36=FACE_OUTER_BOUND('',#55,.T.);
#37=FACE_OUTER_BOUND('',#57,.T.);
#38=FACE_OUTER_BOUND('',#59,.T.);
#39=FACE_OUTER_BOUND('',#60,.T.);
#40=FACE_OUTER_BOUND('',#61,.T.);
#41=FACE_OUTER_BOUND('',#62,.T.);
#42=FACE_OUTER_BOUND('',#64,.T.);
#43=FACE_OUTER_BOUND('',#65,.T.);
#44=FACE_OUTER_BOUND('',#66,.T.);
#45=FACE_OUTER_BOUND('',#67,.T.);
#46=FACE_OUTER_BOUND('',#68,.T.);
#47=EDGE_LOOP('',(#217,#218,#219,#220));
#48=EDGE_LOOP('',(#221,#222,#223,#224));
#49=EDGE_LOOP('',(#225,#226,#227,#228));
#50=EDGE_LOOP('',(#229,#230,#231,#232));
#51=EDGE_LOOP('',(#233,#234,#235,#236,#237,#238,#239));
#52=EDGE_LOOP('',(#240));
#53=EDGE_LOOP('',(#241));
#54=EDGE_LOOP('',(#242));
#55=EDGE_LOOP('',(#243));
#56=EDGE_LOOP('',(#244));
#57=EDGE_LOOP('',(#245,#246,#247,#248,#249,#250,#251,#252,#253,#254));
#58=EDGE_LOOP('',(#255));
#59=EDGE_LOOP('',(#256,#257,#258,#259));
#60=EDGE_LOOP('',(#260,#261,#262,#263));
#61=EDGE_LOOP('',(#264,#265,#266,#267));
#62=EDGE_LOOP('',(#268,#269,#270,#271));
#63=EDGE_LOOP('',(#272));
#64=EDGE_LOOP('',(#273,#274,#275,#276));
#65=EDGE_LOOP('',(#277,#278,#279,#280));
#66=EDGE_LOOP('',(#281,#282,#283,#284));
#67=EDGE_LOOP('',(#285,#286,#287,#288,#289,#290,#291));
#68=EDGE_LOOP('',(#292,#293,#294,#295,#296,#297,#298,#299,#300,#301));
#69=EDGE_LOOP('',(#302));
#70=LINE('',#459,#107);
#71=LINE('',#461,#108);
#72=LINE('',#463,#109);
#73=LINE('',#464,#110);
#74=LINE('',#467,#111);
#75=LINE('',#469,#112);
#76=LINE('',#470,#113);
#77=LINE('',#473,#114);
#78=LINE('',#475,#115);
#79=LINE('',#476,#116);
#80=LINE('',#479,#117);
#81=LINE('',#481,#118);
#82=LINE('',#482,#119);
#83=LINE('',#485,#120);
#84=LINE('',#487,#121);
#85=LINE('',#488,#122);
#86=LINE('',#502,#123);
#87=LINE('',#504,#124);
#88=LINE('',#506,#125);
#89=LINE('',#508,#126);
#90=LINE('',#510,#127);
#91=LINE('',#512,#128);
#92=LINE('',#515,#129);
#93=LINE('',#518,#130);
#94=LINE('',#520,#131);
#95=LINE('',#521,#132);
#96=LINE('',#524,#133);
#97=LINE('',#525,#134);
#98=LINE('',#528,#135);
#99=LINE('',#529,#136);
#100=LINE('',#532,#137);
#101=LINE('',#533,#138);
#102=LINE('',#536,#139);
#103=LINE('',#537,#140);
#104=LINE('',#541,#141);
#105=LINE('',#543,#142);
#106=LINE('',#545,#143);
#107=VECTOR('',#372,10.);
#108=VECTOR('',#373,10.);
#109=VECTOR('',#374,10.);
#110=VECTOR('',#375,10.);
#111=VECTOR('',#378,10.);
#112=VECTOR('',#379,10.);
#113=VECTOR('',#380,10.);
#114=VECTOR('',#383,10.);
#115=VECTOR('',#384,10.);
#116=VECTOR('',#385,10.);
#117=VECTOR('',#388,10.);
#118=VECTOR('',#389,10.);
#119=VECTOR('',#390,10.);
#120=VECTOR('',#393,10.);
#121=VECTOR('',#394,10.);
#122=VECTOR('',#395,10.);
#123=VECTOR('',#412,10.);
#124=VECTOR('',#413,10.);
#125=VECTOR('',#414,10.);
#126=VECTOR('',#415,10.);
#127=VECTOR('',#416,10.);
#128=VECTOR('',#417,10.);
#129=VECTOR('',#420,10.);
#130=VECTOR('',#423,10.);
#131=VECTOR('',#424,10.);
#132=VECTOR('',#425,10.);
#133=VECTOR('',#428,10.);
#134=VECTOR('',#429,10.);
#135=VECTOR('',#432,10.);
#136=VECTOR('',#433,10.);
#137=VECTOR('',#436,10.);
#138=VECTOR('',#437,10.);
#139=VECTOR('',#440,10.);
#140=VECTOR('',#441,10.);
#141=VECTOR('',#446,10.);
#142=VECTOR('',#449,10.);
#143=VECTOR('',#452,10.);
#144=VERTEX_POINT('',#457);
#145=VERTEX_POINT('',#458);
#146=VERTEX_POINT('',#460);
#147=VERTEX_POINT('',#462);
#148=VERTEX_POINT('',#466);
#149=VERTEX_POINT('',#468);
#150=VERTEX_POINT('',#472);
#151=VERTEX_POINT('',#474);
#152=VERTEX_POINT('',#478);
#153=VERTEX_POINT('',#480);
#154=VERTEX_POINT('',#484);
#155=VERTEX_POINT('',#486);
#156=VERTEX_POINT('',#490);
#157=VERTEX_POINT('',#492);
#158=VERTEX_POINT('',#496);
#159=VERTEX_POINT('',#498);
#160=VERTEX_POINT('',#501);
#161=VERTEX_POINT('',#503);
#162=VERTEX_POINT('',#505);
#163=VERTEX_POINT('',#507);
#164=VERTEX_POINT('',#509);
#165=VERTEX_POINT('',#511);
#166=VERTEX_POINT('',#513);
#167=VERTEX_POINT('',#517);
#168=VERTEX_POINT('',#519);
#169=VERTEX_POINT('',#523);
#170=VERTEX_POINT('',#527);
#171=VERTEX_POINT('',#531);
#172=VERTEX_POINT('',#535);
#173=VERTEX_POINT('',#539);
#174=EDGE_CURVE('',#144,#145,#70,.T.);
#175=EDGE_CURVE('',#146,#144,#71,.T.);
#176=EDGE_CURVE('',#147,#146,#72,.T.);
#177=EDGE_CURVE('',#147,#145,#73,.T.);
#178=EDGE_CURVE('',#145,#148,#74,.T.);
#179=EDGE_CURVE('',#149,#147,#75,.T.);
#180=EDGE_CURVE('',#149,#148,#76,.T.);
#181=EDGE_CURVE('',#148,#150,#77,.T.);
#182=EDGE_CURVE('',#151,#149,#78,.T.);
#183=EDGE_CURVE('',#151,#150,#79,.T.);
#184=EDGE_CURVE('',#150,#152,#80,.T.);
#185=EDGE_CURVE('',#153,#151,#81,.T.);
#186=EDGE_CURVE('',#152,#153,#82,.T.);
#187=EDGE_CURVE('',#154,#152,#83,.T.);
#188=EDGE_CURVE('',#154,#155,#84,.T.);
#189=EDGE_CURVE('',#144,#155,#85,.T.);
#190=EDGE_CURVE('',#156,#156,#20,.T.);
#191=EDGE_CURVE('',#157,#157,#21,.T.);
#192=EDGE_CURVE('',#158,#158,#22,.T.);
#193=EDGE_CURVE('',#159,#159,#23,.T.);
#194=EDGE_CURVE('',#153,#160,#86,.T.);
#195=EDGE_CURVE('',#160,#161,#87,.T.);
#196=EDGE_CURVE('',#161,#162,#88,.T.);
#197=EDGE_CURVE('',#162,#163,#89,.T.);
#198=EDGE_CURVE('',#163,#164,#90,.T.);
#199=EDGE_CURVE('',#164,#165,#91,.T.);
#200=EDGE_CURVE('',#165,#166,#24,.T.);
#201=EDGE_CURVE('',#166,#154,#92,.T.);
#202=EDGE_CURVE('',#167,#160,#93,.T.);
#203=EDGE_CURVE('',#168,#167,#94,.T.);
#204=EDGE_CURVE('',#161,#168,#95,.T.);
#205=EDGE_CURVE('',#169,#168,#96,.T.);
#206=EDGE_CURVE('',#162,#169,#97,.T.);
#207=EDGE_CURVE('',#170,#169,#98,.T.);
#208=EDGE_CURVE('',#163,#170,#99,.T.);
#209=EDGE_CURVE('',#171,#170,#100,.T.);
#210=EDGE_CURVE('',#164,#171,#101,.T.);
#211=EDGE_CURVE('',#172,#171,#102,.T.);
#212=EDGE_CURVE('',#165,#172,#103,.T.);
#213=EDGE_CURVE('',#173,#172,#25,.T.);
#214=EDGE_CURVE('',#166,#173,#104,.T.);
#215=EDGE_CURVE('',#155,#173,#105,.T.);
#216=EDGE_CURVE('',#167,#146,#106,.T.);
#217=ORIENTED_EDGE('',*,*,#174,.F.);
#218=ORIENTED_EDGE('',*,*,#175,.F.);
#219=ORIENTED_EDGE('',*,*,#176,.F.);
#220=ORIENTED_EDGE('',*,*,#177,.T.);
#221=ORIENTED_EDGE('',*,*,#178,.F.);
#222=ORIENTED_EDGE('',*,*,#177,.F.);
#223=ORIENTED_EDGE('',*,*,#179,.F.);
#224=ORIENTED_EDGE('',*,*,#180,.T.);
#225=ORIENTED_EDGE('',*,*,#181,.F.);
#226=ORIENTED_EDGE('',*,*,#180,.F.);
#227=ORIENTED_EDGE('',*,*,#182,.F.);
#228=ORIENTED_EDGE('',*,*,#183,.T.);
#229=ORIENTED_EDGE('',*,*,#184,.F.);
#230=ORIENTED_EDGE('',*,*,#183,.F.);
#231=ORIENTED_EDGE('',*,*,#185,.F.);
#232=ORIENTED_EDGE('',*,*,#186,.F.);
#233=ORIENTED_EDGE('',*,*,#174,.T.);
#234=ORIENTED_EDGE('',*,*,#178,.T.);
#235=ORIENTED_EDGE('',*,*,#181,.T.);
#236=ORIENTED_EDGE('',*,*,#184,.T.);
#237=ORIENTED_EDGE('',*,*,#187,.F.);
#238=ORIENTED_EDGE('',*,*,#188,.T.);
#239=ORIENTED_EDGE('',*,*,#189,.F.);
#240=ORIENTED_EDGE('',*,*,#190,.T.);
#241=ORIENTED_EDGE('',*,*,#191,.F.);
#242=ORIENTED_EDGE('',*,*,#190,.F.);
#243=ORIENTED_EDGE('',*,*,#192,.F.);
#244=ORIENTED_EDGE('',*,*,#193,.F.);
#245=ORIENTED_EDGE('',*,*,#186,.T.);
#246=ORIENTED_EDGE('',*,*,#194,.T.);
#247=ORIENTED_EDGE('',*,*,#195,.T.);
#248=ORIENTED_EDGE('',*,*,#196,.T.);
#249=ORIENTED_EDGE('',*,*,#197,.T.);
#250=ORIENTED_EDGE('',*,*,#198,.T.);
#251=ORIENTED_EDGE('',*,*,#199,.T.);
#252=ORIENTED_EDGE('',*,*,#200,.T.);
#253=ORIENTED_EDGE('',*,*,#201,.T.);
#254=ORIENTED_EDGE('',*,*,#187,.T.);
#255=ORIENTED_EDGE('',*,*,#192,.T.);
#256=ORIENTED_EDGE('',*,*,#202,.F.);
#257=ORIENTED_EDGE('',*,*,#203,.F.);
#258=ORIENTED_EDGE('',*,*,#204,.F.);
#259=ORIENTED_EDGE('',*,*,#195,.F.);
#260=ORIENTED_EDGE('',*,*,#204,.T.);
#261=ORIENTED_EDGE('',*,*,#205,.F.);
#262=ORIENTED_EDGE('',*,*,#206,.F.);
#263=ORIENTED_EDGE('',*,*,#196,.F.);
#264=ORIENTED_EDGE('',*,*,#206,.T.);
#265=ORIENTED_EDGE('',*,*,#207,.F.);
#266=ORIENTED_EDGE('',*,*,#208,.F.);
#267=ORIENTED_EDGE('',*,*,#197,.F.);
#268=ORIENTED_EDGE('',*,*,#208,.T.);
#269=ORIENTED_EDGE('',*,*,#209,.F.);
#270=ORIENTED_EDGE('',*,*,#210,.F.);
#271=ORIENTED_EDGE('',*,*,#198,.F.);
#272=ORIENTED_EDGE('',*,*,#191,.T.);
#273=ORIENTED_EDGE('',*,*,#210,.T.);
#274=ORIENTED_EDGE('',*,*,#211,.F.);
#275=ORIENTED_EDGE('',*,*,#212,.F.);
#276=ORIENTED_EDGE('',*,*,#199,.F.);
#277=ORIENTED_EDGE('',*,*,#212,.T.);
#278=ORIENTED_EDGE('',*,*,#213,.F.);
#279=ORIENTED_EDGE('',*,*,#214,.F.);
#280=ORIENTED_EDGE('',*,*,#200,.F.);
#281=ORIENTED_EDGE('',*,*,#214,.T.);
#282=ORIENTED_EDGE('',*,*,#215,.F.);
#283=ORIENTED_EDGE('',*,*,#188,.F.);
#284=ORIENTED_EDGE('',*,*,#201,.F.);
#285=ORIENTED_EDGE('',*,*,#176,.T.);
#286=ORIENTED_EDGE('',*,*,#216,.F.);
#287=ORIENTED_EDGE('',*,*,#202,.T.);
#288=ORIENTED_EDGE('',*,*,#194,.F.);
#289=ORIENTED_EDGE('',*,*,#185,.T.);
#290=ORIENTED_EDGE('',*,*,#182,.T.);
#291=ORIENTED_EDGE('',*,*,#179,.T.);
#292=ORIENTED_EDGE('',*,*,#175,.T.);
#293=ORIENTED_EDGE('',*,*,#189,.T.);
#294=ORIENTED_EDGE('',*,*,#215,.T.);
#295=ORIENTED_EDGE('',*,*,#213,.T.);
#296=ORIENTED_EDGE('',*,*,#211,.T.);
#297=ORIENTED_EDGE('',*,*,#209,.T.);
#298=ORIENTED_EDGE('',*,*,#207,.T.);
#299=ORIENTED_EDGE('',*,*,#205,.T.);
#300=ORIENTED_EDGE('',*,*,#203,.T.);
#301=ORIENTED_EDGE('',*,*,#216,.T.);
#302=ORIENTED_EDGE('',*,*,#193,.T.);
#303=PLANE('',#344);
#304=PLANE('',#345);
#305=PLANE('',#346);
#306=PLANE('',#347);
#307=PLANE('',#348);
#308=PLANE('',#352);
#309=PLANE('',#356);
#310=PLANE('',#358);
#311=PLANE('',#359);
#312=PLANE('',#360);
#313=PLANE('',#361);
#314=PLANE('',#362);
#315=PLANE('',#365);
#316=PLANE('',#366);
#317=PLANE('',#367);
#318=ADVANCED_FACE('',(#29),#303,.F.);
#319=ADVANCED_FACE('',(#30),#304,.F.);
#320=ADVANCED_FACE('',(#31),#305,.F.);
#321=ADVANCED_FACE('',(#32),#306,.F.);
#322=ADVANCED_FACE('',(#33),#307,.T.);
#323=ADVANCED_FACE('',(#34,#15),#26,.F.);
#324=ADVANCED_FACE('',(#35),#308,.F.);
#325=ADVANCED_FACE('',(#36,#16),#27,.F.);
#326=ADVANCED_FACE('',(#37,#17),#309,.F.);
#327=ADVANCED_FACE('',(#38),#310,.T.);
#328=ADVANCED_FACE('',(#39),#311,.T.);
#329=ADVANCED_FACE('',(#40),#312,.T.);
#330=ADVANCED_FACE('',(#41,#18),#313,.T.);
#331=ADVANCED_FACE('',(#42),#314,.T.);
#332=ADVANCED_FACE('',(#43),#28,.T.);
#333=ADVANCED_FACE('',(#44),#315,.T.);
#334=ADVANCED_FACE('',(#45),#316,.T.);
#335=ADVANCED_FACE('',(#46,#19),#317,.T.);
#336=CLOSED_SHELL('',(#318,#319,#320,#321,#322,#323,#324,#325,#326,#327,
#328,#329,#330,#331,#332,#333,#334,#335));
#337=DATE_TIME_ROLE('creation_date');
#338=APPLIED_DATE_AND_TIME_ASSIGNMENT(#339,#337,(#561));
#339=DATE_AND_TIME(#340,#341);
#340=CALENDAR_DATE(2021,16,2);
#341=LOCAL_TIME(16,37,6.,#342);
#342=COORDINATED_UNIVERSAL_TIME_OFFSET(0,0,.BEHIND.);
#343=AXIS2_PLACEMENT_3D('placement',#455,#368,#369);
#344=AXIS2_PLACEMENT_3D('',#456,#370,#371);
#345=AXIS2_PLACEMENT_3D('',#465,#376,#377);
#346=AXIS2_PLACEMENT_3D('',#471,#381,#382);
#347=AXIS2_PLACEMENT_3D('',#477,#386,#387);
#348=AXIS2_PLACEMENT_3D('',#483,#391,#392);
#349=AXIS2_PLACEMENT_3D('',#489,#396,#397);
#350=AXIS2_PLACEMENT_3D('',#491,#398,#399);
#351=AXIS2_PLACEMENT_3D('',#493,#400,#401);
#352=AXIS2_PLACEMENT_3D('',#494,#402,#403);
#353=AXIS2_PLACEMENT_3D('',#495,#404,#405);
#354=AXIS2_PLACEMENT_3D('',#497,#406,#407);
#355=AXIS2_PLACEMENT_3D('',#499,#408,#409);
#356=AXIS2_PLACEMENT_3D('',#500,#410,#411);
#357=AXIS2_PLACEMENT_3D('',#514,#418,#419);
#358=AXIS2_PLACEMENT_3D('',#516,#421,#422);
#359=AXIS2_PLACEMENT_3D('',#522,#426,#427);
#360=AXIS2_PLACEMENT_3D('',#526,#430,#431);
#361=AXIS2_PLACEMENT_3D('',#530,#434,#435);
#362=AXIS2_PLACEMENT_3D('',#534,#438,#439);
#363=AXIS2_PLACEMENT_3D('',#538,#442,#443);
#364=AXIS2_PLACEMENT_3D('',#540,#444,#445);
#365=AXIS2_PLACEMENT_3D('',#542,#447,#448);
#366=AXIS2_PLACEMENT_3D('',#544,#450,#451);
#367=AXIS2_PLACEMENT_3D('',#546,#453,#454);
#368=DIRECTION('axis',(0.,0.,1.));
#369=DIRECTION('refdir',(1.,0.,0.));
#370=DIRECTION('center_axis',(1.,1.55820775385987E-16,0.));
#371=DIRECTION('ref_axis',(0.,0.,1.));
#372=DIRECTION('',(0.,0.,-1.));
#373=DIRECTION('',(1.55820775385987E-16,-1.,0.));
#374=DIRECTION('',(0.,0.,1.));
#375=DIRECTION('',(1.55820775385987E-16,-1.,0.));
#376=DIRECTION('center_axis',(0.537299608346824,8.37224415871891E-17,-0.843391445812886));
#377=DIRECTION('ref_axis',(0.843391445812886,1.77635683940025E-16,0.537299608346824));
#378=DIRECTION('',(-0.843391445812885,0.,-0.537299608346824));
#379=DIRECTION('',(0.843391445812885,1.32346657514257E-16,0.537299608346824));
#380=DIRECTION('',(1.55820775385987E-16,-1.,0.));
#381=DIRECTION('center_axis',(0.537299608346824,8.37224415871891E-17,0.843391445812886));
#382=DIRECTION('ref_axis',(-0.843391445812886,-1.77635683940025E-16,0.537299608346824));
#383=DIRECTION('',(0.843391445812886,0.,-0.537299608346824));
#384=DIRECTION('',(-0.843391445812886,-1.32346657514257E-16,0.537299608346824));
#385=DIRECTION('',(1.55820775385987E-16,-1.,0.));
#386=DIRECTION('center_axis',(1.,1.55820775385987E-16,0.));
#387=DIRECTION('ref_axis',(0.,0.,1.));
#388=DIRECTION('',(0.,0.,-1.));
#389=DIRECTION('',(0.,0.,1.));
#390=DIRECTION('',(-1.55820775385987E-16,1.,0.));
#391=DIRECTION('center_axis',(0.,-1.,0.));
#392=DIRECTION('ref_axis',(1.,0.,0.));
#393=DIRECTION('',(-1.,0.,0.));
#394=DIRECTION('',(0.,0.,1.));
#395=DIRECTION('',(1.,0.,0.));
#396=DIRECTION('center_axis',(0.,1.,0.));
#397=DIRECTION('ref_axis',(-1.,0.,0.));
#398=DIRECTION('center_axis',(0.,1.,0.));
#399=DIRECTION('ref_axis',(-1.,0.,0.));
#400=DIRECTION('center_axis',(0.,1.,0.));
#401=DIRECTION('ref_axis',(-1.,0.,0.));
#402=DIRECTION('center_axis',(0.,1.,0.));
#403=DIRECTION('ref_axis',(0.,0.,1.));
#404=DIRECTION('center_axis',(0.,0.,1.));
#405=DIRECTION('ref_axis',(1.,0.,0.));
#406=DIRECTION('center_axis',(0.,0.,1.));
#407=DIRECTION('ref_axis',(1.,0.,0.));
#408=DIRECTION('center_axis',(0.,0.,-1.));
#409=DIRECTION('ref_axis',(1.,0.,0.));
#410=DIRECTION('center_axis',(0.,0.,1.));
#411=DIRECTION('ref_axis',(1.,0.,0.));
#412=DIRECTION('',(1.,1.56921982279174E-16,0.));
#413=DIRECTION('',(0.,-1.,0.));
#414=DIRECTION('',(1.,0.,0.));
#415=DIRECTION('',(-0.707106781186547,-0.707106781186548,0.));
#416=DIRECTION('',(-1.,0.,0.));
#417=DIRECTION('',(0.,-1.,0.));
#418=DIRECTION('center_axis',(0.,0.,-1.));
#419=DIRECTION('ref_axis',(-1.,-1.22464679914735E-16,0.));
#420=DIRECTION('',(0.,1.,0.));
#421=DIRECTION('center_axis',(1.,0.,0.));
#422=DIRECTION('ref_axis',(0.,1.,0.));
#423=DIRECTION('',(0.,0.,-1.));
#424=DIRECTION('',(0.,1.,0.));
#425=DIRECTION('',(0.,0.,1.));
#426=DIRECTION('center_axis',(0.,1.,0.));
#427=DIRECTION('ref_axis',(-1.,0.,0.));
#428=DIRECTION('',(-1.,0.,0.));
#429=DIRECTION('',(0.,0.,1.));
#430=DIRECTION('center_axis',(0.707106781186548,-0.707106781186547,0.));
#431=DIRECTION('ref_axis',(0.707106781186547,0.707106781186548,0.));
#432=DIRECTION('',(0.707106781186547,0.707106781186548,0.));
#433=DIRECTION('',(0.,0.,1.));
#434=DIRECTION('center_axis',(0.,-1.,0.));
#435=DIRECTION('ref_axis',(1.,0.,0.));
#436=DIRECTION('',(1.,0.,0.));
#437=DIRECTION('',(0.,0.,1.));
#438=DIRECTION('center_axis',(1.,0.,0.));
#439=DIRECTION('ref_axis',(0.,1.,0.));
#440=DIRECTION('',(0.,1.,0.));
#441=DIRECTION('',(0.,0.,1.));
#442=DIRECTION('center_axis',(0.,0.,1.));
#443=DIRECTION('ref_axis',(-1.,-1.22464679914735E-16,0.));
#444=DIRECTION('center_axis',(0.,0.,1.));
#445=DIRECTION('ref_axis',(-1.,-1.22464679914735E-16,0.));
#446=DIRECTION('',(0.,0.,1.));
#447=DIRECTION('center_axis',(-1.,0.,0.));
#448=DIRECTION('ref_axis',(0.,-1.,0.));
#449=DIRECTION('',(0.,-1.,0.));
#450=DIRECTION('center_axis',(-1.56921982279174E-16,1.,0.));
#451=DIRECTION('ref_axis',(-1.,-1.77635683940025E-16,0.));
#452=DIRECTION('',(-1.,-1.56921982279174E-16,0.));
#453=DIRECTION('center_axis',(0.,0.,1.));
#454=DIRECTION('ref_axis',(1.,0.,0.));
#455=CARTESIAN_POINT('',(0.,0.,0.));
#456=CARTESIAN_POINT('Origin',(-10.3,13.,0.95560539121124));
#457=CARTESIAN_POINT('',(-10.3,7.,3.));
#458=CARTESIAN_POINT('',(-10.3,7.,0.95560539121124));
#459=CARTESIAN_POINT('',(-10.3,7.,0.47780269560562));
#460=CARTESIAN_POINT('',(-10.3,13.,3.));
#461=CARTESIAN_POINT('',(-10.3,10.1634698190433,3.));
#462=CARTESIAN_POINT('',(-10.3,13.,0.95560539121124));
#463=CARTESIAN_POINT('',(-10.3,13.,0.47780269560562));
#464=CARTESIAN_POINT('',(-10.3,13.,0.95560539121124));
#465=CARTESIAN_POINT('Origin',(-11.8,13.,4.16333634234434E-16));
#466=CARTESIAN_POINT('',(-11.8,7.,0.));
#467=CARTESIAN_POINT('',(-12.6891364135879,7.,-0.566442366897906));
#468=CARTESIAN_POINT('',(-11.8,13.,0.));
#469=CARTESIAN_POINT('',(-2.62411221177249,13.,5.84568522638639));
#470=CARTESIAN_POINT('',(-11.8,13.,0.));
#471=CARTESIAN_POINT('Origin',(-10.3,13.,-0.95560539121124));
#472=CARTESIAN_POINT('',(-10.3,7.,-0.95560539121124));
#473=CARTESIAN_POINT('',(-11.9391364135879,7.,0.0886396712922864));
#474=CARTESIAN_POINT('',(-10.3,13.,-0.95560539121124));
#475=CARTESIAN_POINT('',(-1.87411221177249,13.,-6.32348792199201));
#476=CARTESIAN_POINT('',(-10.3,13.,-0.95560539121124));
#477=CARTESIAN_POINT('Origin',(-10.3,13.,-3.));
#478=CARTESIAN_POINT('',(-10.3,7.,-3.));
#479=CARTESIAN_POINT('',(-10.3,7.,-1.5));
#480=CARTESIAN_POINT('',(-10.3,13.,-3.));
#481=CARTESIAN_POINT('',(-10.3,13.,-1.5));
#482=CARTESIAN_POINT('',(-10.3,10.1634698190433,-3.));
#483=CARTESIAN_POINT('Origin',(-14.3,7.,0.));
#484=CARTESIAN_POINT('',(-6.,7.,-3.));
#485=CARTESIAN_POINT('',(-14.3,7.,-3.));
#486=CARTESIAN_POINT('',(-6.,7.,3.));
#487=CARTESIAN_POINT('',(-6.,7.,0.));
#488=CARTESIAN_POINT('',(-14.3,7.,3.));
#489=CARTESIAN_POINT('Origin',(22.,5.,2.22044604925031E-15));
#490=CARTESIAN_POINT('',(24.5,8.,2.52660774903715E-15));
#491=CARTESIAN_POINT('Origin',(22.,8.,2.22044604925031E-15));
#492=CARTESIAN_POINT('',(24.5,5.,2.52660774903715E-15));
#493=CARTESIAN_POINT('Origin',(22.,5.,2.22044604925031E-15));
#494=CARTESIAN_POINT('Origin',(22.,8.,2.22044604925031E-15));
#495=CARTESIAN_POINT('Origin',(0.,0.,-47.4052576622717));
#496=CARTESIAN_POINT('',(-3.,-3.67394039744206E-16,-3.));
#497=CARTESIAN_POINT('Origin',(0.,0.,-3.));
#498=CARTESIAN_POINT('',(3.,0.,3.));
#499=CARTESIAN_POINT('Origin',(0.,0.,3.));
#500=CARTESIAN_POINT('Origin',(7.01045893225051,7.32693963808665,-3.));
#501=CARTESIAN_POINT('',(14.,13.,-3.));
#502=CARTESIAN_POINT('',(14.,13.,-3.));
#503=CARTESIAN_POINT('',(14.,11.,-3.));
#504=CARTESIAN_POINT('',(14.,11.,-3.));
#505=CARTESIAN_POINT('',(32.,11.,-3.));
#506=CARTESIAN_POINT('',(32.,11.,-3.));
#507=CARTESIAN_POINT('',(26.,5.,-3.));
#508=CARTESIAN_POINT('',(26.,5.,-3.));
#509=CARTESIAN_POINT('',(6.,5.,-3.));
#510=CARTESIAN_POINT('',(6.,5.,-3.));
#511=CARTESIAN_POINT('',(6.,0.,-3.));
#512=CARTESIAN_POINT('',(6.,0.,-3.));
#513=CARTESIAN_POINT('',(-6.,0.,-3.));
#514=CARTESIAN_POINT('Origin',(0.,0.,-3.));
#515=CARTESIAN_POINT('',(-6.,7.,-3.));
#516=CARTESIAN_POINT('Origin',(14.,11.,0.));
#517=CARTESIAN_POINT('',(14.,13.,3.));
#518=CARTESIAN_POINT('',(14.,13.,0.));
#519=CARTESIAN_POINT('',(14.,11.,3.));
#520=CARTESIAN_POINT('',(14.,11.,3.));
#521=CARTESIAN_POINT('',(14.,11.,0.));
#522=CARTESIAN_POINT('Origin',(32.,11.,0.));
#523=CARTESIAN_POINT('',(32.,11.,3.));
#524=CARTESIAN_POINT('',(32.,11.,3.));
#525=CARTESIAN_POINT('',(32.,11.,0.));
#526=CARTESIAN_POINT('Origin',(26.,5.,0.));
#527=CARTESIAN_POINT('',(26.,5.,3.));
#528=CARTESIAN_POINT('',(26.,5.,3.));
#529=CARTESIAN_POINT('',(26.,5.,0.));
#530=CARTESIAN_POINT('Origin',(6.,5.,0.));
#531=CARTESIAN_POINT('',(6.,5.,3.));
#532=CARTESIAN_POINT('',(6.,5.,3.));
#533=CARTESIAN_POINT('',(6.,5.,0.));
#534=CARTESIAN_POINT('Origin',(6.,0.,0.));
#535=CARTESIAN_POINT('',(6.,0.,3.));
#536=CARTESIAN_POINT('',(6.,0.,3.));
#537=CARTESIAN_POINT('',(6.,0.,0.));
#538=CARTESIAN_POINT('Origin',(0.,0.,0.));
#539=CARTESIAN_POINT('',(-6.,0.,3.));
#540=CARTESIAN_POINT('Origin',(0.,0.,3.));
#541=CARTESIAN_POINT('',(-6.,-7.34788079488413E-16,0.));
#542=CARTESIAN_POINT('Origin',(-6.,7.,0.));
#543=CARTESIAN_POINT('',(-6.,7.,3.));
#544=CARTESIAN_POINT('Origin',(14.,13.,0.));
#545=CARTESIAN_POINT('',(14.,13.,3.));
#546=CARTESIAN_POINT('Origin',(7.01045893225051,7.32693963808665,3.));
#547=UNCERTAINTY_MEASURE_WITH_UNIT(LENGTH_MEASURE(0.01),#551,
'DISTANCE_ACCURACY_VALUE',
'Maximum model space distance between geometric entities at asserted c
onnectivities');
#548=UNCERTAINTY_MEASURE_WITH_UNIT(LENGTH_MEASURE(1.E-6),#551,
'DISTANCE_ACCURACY_VALUE',
'Maximum model space distance between geometric entities at asserted c
onnectivities');
#549=(
GEOMETRIC_REPRESENTATION_CONTEXT(3)
GLOBAL_UNCERTAINTY_ASSIGNED_CONTEXT((#547))
GLOBAL_UNIT_ASSIGNED_CONTEXT((#551,#554,#552))
REPRESENTATION_CONTEXT('','3D')
);
#550=(
GEOMETRIC_REPRESENTATION_CONTEXT(3)
GLOBAL_UNCERTAINTY_ASSIGNED_CONTEXT((#548))
GLOBAL_UNIT_ASSIGNED_CONTEXT((#551,#554,#552))
REPRESENTATION_CONTEXT('','3D')
);
#551=(
LENGTH_UNIT()
NAMED_UNIT(*)
SI_UNIT(.MILLI.,.METRE.)
);
#552=(
NAMED_UNIT(*)
SI_UNIT($,.STERADIAN.)
SOLID_ANGLE_UNIT()
);
#553=DIMENSIONAL_EXPONENTS(0.,0.,0.,0.,0.,0.,0.);
#554=(
CONVERSION_BASED_UNIT('degree',#556)
NAMED_UNIT(#553)
PLANE_ANGLE_UNIT()
);
#555=(
NAMED_UNIT(*)
PLANE_ANGLE_UNIT()
SI_UNIT($,.RADIAN.)
);
#556=PLANE_ANGLE_MEASURE_WITH_UNIT(PLANE_ANGLE_MEASURE(0.01745329252),#555);
#557=SHAPE_DEFINITION_REPRESENTATION(#558,#559);
#558=PRODUCT_DEFINITION_SHAPE('',$,#561);
#559=SHAPE_REPRESENTATION('',(#343),#549);
#560=PRODUCT_DEFINITION_CONTEXT('part definition',#565,'design');
#561=PRODUCT_DEFINITION('chariot_blocage_angulaire_levier',
'chariot_blocage_angulaire_levier',#562,#560);
#562=PRODUCT_DEFINITION_FORMATION('',$,#567);
#563=PRODUCT_RELATED_PRODUCT_CATEGORY(
'chariot_blocage_angulaire_levier','chariot_blocage_angulaire_levier',(#567));
#564=APPLICATION_PROTOCOL_DEFINITION('international standard',
'automotive_design',2009,#565);
#565=APPLICATION_CONTEXT(
'Core Data for Automotive Mechanical Design Process');
#566=PRODUCT_CONTEXT('part definition',#565,'mechanical');
#567=PRODUCT('chariot_blocage_angulaire_levier',
'chariot_blocage_angulaire_levier',$,(#566));
#568=PRESENTATION_STYLE_ASSIGNMENT((#569));
#569=SURFACE_STYLE_USAGE(.BOTH.,#570);
#570=SURFACE_SIDE_STYLE('',(#571));
#571=SURFACE_STYLE_FILL_AREA(#572);
#572=FILL_AREA_STYLE('',(#573));
#573=FILL_AREA_STYLE_COLOUR('',#574);
#574=COLOUR_RGB('',0.745098039215686,0.737254901960784,0.729411764705882);
ENDSEC;
END-ISO-10303-21;
