ISO-10303-21;
HEADER;
/* Generated by software containing ST-Developer
 * from STEP Tools, Inc. (www.steptools.com) 
 */

FILE_DESCRIPTION(
/* description */ (''),
/* implementation_level */ '2;1');

FILE_NAME(
/* name */ 'E:\\stephane_larhant\\step\\axe_porte_outil_cone F_1.stp',
/* time_stamp */ '2021-03-29T18:33:12+02:00',
/* author */ ('Utilisateur'),
/* organization */ (''),
/* preprocessor_version */ 'ST-DEVELOPER v16.5',
/* originating_system */ 'Autodesk Inventor 2017',
/* authorisation */ '');

FILE_SCHEMA (('AUTOMOTIVE_DESIGN { 1 0 10303 214 3 1 1 }'));
ENDSEC;

DATA;
#10=MECHANICAL_DESIGN_GEOMETRIC_PRESENTATION_REPRESENTATION('',(#13),#614);
#11=SHAPE_REPRESENTATION_RELATIONSHIP('SRR','None',#623,#12);
#12=ADVANCED_BREP_SHAPE_REPRESENTATION('',(#14),#613);
#13=STYLED_ITEM('',(#632),#14);
#14=MANIFOLD_SOLID_BREP('Solide1',#347);
#15=B_SPLINE_CURVE_WITH_KNOTS('',3,(#555,#556,#557,#558,#559,#560,#561,
#562,#563,#564),.UNSPECIFIED.,.F.,.F.,(4,2,2,2,4),(0.,0.0948786037752192,
0.189757207550438,0.284602277050044,0.379447346549649),.UNSPECIFIED.);
#16=B_SPLINE_CURVE_WITH_KNOTS('',3,(#571,#572,#573,#574,#575,#576,#577,
#578,#579,#580),.UNSPECIFIED.,.F.,.F.,(4,2,2,2,4),(0.379447346549649,0.474292416049255,
0.56913748554886,0.66401608932408,0.758894693099299),.UNSPECIFIED.);
#17=FACE_BOUND('',#77,.T.);
#18=FACE_BOUND('',#79,.T.);
#19=FACE_BOUND('',#81,.T.);
#20=FACE_BOUND('',#88,.T.);
#21=FACE_BOUND('',#90,.T.);
#22=FACE_BOUND('',#92,.T.);
#23=FACE_BOUND('',#94,.T.);
#24=FACE_BOUND('',#97,.T.);
#25=CYLINDRICAL_SURFACE('',#368,12.);
#26=CYLINDRICAL_SURFACE('',#373,6.05);
#27=CYLINDRICAL_SURFACE('',#375,2.5);
#28=CYLINDRICAL_SURFACE('',#380,7.99999999999999);
#29=CYLINDRICAL_SURFACE('',#385,8.99999999999999);
#30=CYLINDRICAL_SURFACE('',#389,14.);
#31=CIRCLE('',#359,12.);
#32=CIRCLE('',#360,14.);
#33=CIRCLE('',#362,12.);
#34=CIRCLE('',#363,14.);
#35=CIRCLE('',#366,14.);
#36=CIRCLE('',#367,12.);
#37=CIRCLE('',#369,12.);
#38=CIRCLE('',#370,12.);
#39=CIRCLE('',#372,6.05);
#40=CIRCLE('',#374,6.05);
#41=CIRCLE('',#376,2.5);
#42=CIRCLE('',#381,7.99999999999999);
#43=CIRCLE('',#382,7.99999999999999);
#44=CIRCLE('',#384,8.99999999999999);
#45=CIRCLE('',#386,9.);
#46=CIRCLE('',#388,14.);
#47=CIRCLE('',#390,14.);
#48=FACE_OUTER_BOUND('',#69,.T.);
#49=FACE_OUTER_BOUND('',#70,.T.);
#50=FACE_OUTER_BOUND('',#71,.T.);
#51=FACE_OUTER_BOUND('',#72,.T.);
#52=FACE_OUTER_BOUND('',#73,.T.);
#53=FACE_OUTER_BOUND('',#74,.T.);
#54=FACE_OUTER_BOUND('',#75,.T.);
#55=FACE_OUTER_BOUND('',#76,.T.);
#56=FACE_OUTER_BOUND('',#78,.T.);
#57=FACE_OUTER_BOUND('',#80,.T.);
#58=FACE_OUTER_BOUND('',#82,.T.);
#59=FACE_OUTER_BOUND('',#83,.T.);
#60=FACE_OUTER_BOUND('',#84,.T.);
#61=FACE_OUTER_BOUND('',#85,.T.);
#62=FACE_OUTER_BOUND('',#86,.T.);
#63=FACE_OUTER_BOUND('',#87,.T.);
#64=FACE_OUTER_BOUND('',#89,.T.);
#65=FACE_OUTER_BOUND('',#91,.T.);
#66=FACE_OUTER_BOUND('',#93,.T.);
#67=FACE_OUTER_BOUND('',#95,.T.);
#68=FACE_OUTER_BOUND('',#96,.T.);
#69=EDGE_LOOP('',(#223,#224,#225,#226));
#70=EDGE_LOOP('',(#227,#228,#229,#230));
#71=EDGE_LOOP('',(#231,#232,#233,#234));
#72=EDGE_LOOP('',(#235,#236,#237,#238));
#73=EDGE_LOOP('',(#239,#240,#241,#242));
#74=EDGE_LOOP('',(#243,#244,#245,#246));
#75=EDGE_LOOP('',(#247,#248,#249,#250));
#76=EDGE_LOOP('',(#251,#252,#253,#254,#255,#256,#257,#258));
#77=EDGE_LOOP('',(#259));
#78=EDGE_LOOP('',(#260));
#79=EDGE_LOOP('',(#261));
#80=EDGE_LOOP('',(#262));
#81=EDGE_LOOP('',(#263));
#82=EDGE_LOOP('',(#264,#265,#266,#267,#268));
#83=EDGE_LOOP('',(#269,#270,#271,#272));
#84=EDGE_LOOP('',(#273,#274,#275,#276));
#85=EDGE_LOOP('',(#277,#278,#279,#280));
#86=EDGE_LOOP('',(#281,#282,#283,#284,#285,#286));
#87=EDGE_LOOP('',(#287));
#88=EDGE_LOOP('',(#288));
#89=EDGE_LOOP('',(#289));
#90=EDGE_LOOP('',(#290));
#91=EDGE_LOOP('',(#291));
#92=EDGE_LOOP('',(#292));
#93=EDGE_LOOP('',(#293,#294,#295,#296,#297,#298,#299,#300));
#94=EDGE_LOOP('',(#301));
#95=EDGE_LOOP('',(#302,#303,#304,#305));
#96=EDGE_LOOP('',(#306,#307,#308,#309));
#97=EDGE_LOOP('',(#310));
#98=LINE('',#500,#123);
#99=LINE('',#502,#124);
#100=LINE('',#504,#125);
#101=LINE('',#505,#126);
#102=LINE('',#509,#127);
#103=LINE('',#511,#128);
#104=LINE('',#513,#129);
#105=LINE('',#514,#130);
#106=LINE('',#518,#131);
#107=LINE('',#520,#132);
#108=LINE('',#522,#133);
#109=LINE('',#523,#134);
#110=LINE('',#531,#135);
#111=LINE('',#535,#136);
#112=LINE('',#537,#137);
#113=LINE('',#538,#138);
#114=LINE('',#566,#139);
#115=LINE('',#570,#140);
#116=LINE('',#583,#141);
#117=LINE('',#585,#142);
#118=LINE('',#586,#143);
#119=LINE('',#589,#144);
#120=LINE('',#591,#145);
#121=LINE('',#592,#146);
#122=LINE('',#594,#147);
#123=VECTOR('',#397,10.);
#124=VECTOR('',#398,10.);
#125=VECTOR('',#399,10.);
#126=VECTOR('',#400,10.);
#127=VECTOR('',#403,10.);
#128=VECTOR('',#404,10.);
#129=VECTOR('',#405,10.);
#130=VECTOR('',#406,10.);
#131=VECTOR('',#409,10.);
#132=VECTOR('',#410,10.);
#133=VECTOR('',#411,10.);
#134=VECTOR('',#412,10.);
#135=VECTOR('',#423,10.);
#136=VECTOR('',#428,10.);
#137=VECTOR('',#429,10.);
#138=VECTOR('',#430,10.);
#139=VECTOR('',#453,10.);
#140=VECTOR('',#456,10.);
#141=VECTOR('',#459,10.);
#142=VECTOR('',#460,10.);
#143=VECTOR('',#461,10.);
#144=VECTOR('',#464,10.);
#145=VECTOR('',#465,10.);
#146=VECTOR('',#466,10.);
#147=VECTOR('',#469,10.);
#148=VERTEX_POINT('',#498);
#149=VERTEX_POINT('',#499);
#150=VERTEX_POINT('',#501);
#151=VERTEX_POINT('',#503);
#152=VERTEX_POINT('',#507);
#153=VERTEX_POINT('',#508);
#154=VERTEX_POINT('',#510);
#155=VERTEX_POINT('',#512);
#156=VERTEX_POINT('',#516);
#157=VERTEX_POINT('',#517);
#158=VERTEX_POINT('',#519);
#159=VERTEX_POINT('',#521);
#160=VERTEX_POINT('',#528);
#161=VERTEX_POINT('',#530);
#162=VERTEX_POINT('',#534);
#163=VERTEX_POINT('',#536);
#164=VERTEX_POINT('',#544);
#165=VERTEX_POINT('',#547);
#166=VERTEX_POINT('',#550);
#167=VERTEX_POINT('',#553);
#168=VERTEX_POINT('',#554);
#169=VERTEX_POINT('',#565);
#170=VERTEX_POINT('',#567);
#171=VERTEX_POINT('',#569);
#172=VERTEX_POINT('',#582);
#173=VERTEX_POINT('',#584);
#174=VERTEX_POINT('',#588);
#175=VERTEX_POINT('',#590);
#176=VERTEX_POINT('',#599);
#177=VERTEX_POINT('',#602);
#178=VERTEX_POINT('',#605);
#179=EDGE_CURVE('',#148,#149,#98,.T.);
#180=EDGE_CURVE('',#150,#148,#99,.T.);
#181=EDGE_CURVE('',#151,#150,#100,.T.);
#182=EDGE_CURVE('',#151,#149,#101,.T.);
#183=EDGE_CURVE('',#152,#153,#102,.T.);
#184=EDGE_CURVE('',#152,#154,#103,.T.);
#185=EDGE_CURVE('',#155,#154,#104,.T.);
#186=EDGE_CURVE('',#153,#155,#105,.T.);
#187=EDGE_CURVE('',#156,#157,#106,.T.);
#188=EDGE_CURVE('',#158,#156,#107,.T.);
#189=EDGE_CURVE('',#159,#158,#108,.T.);
#190=EDGE_CURVE('',#157,#159,#109,.T.);
#191=EDGE_CURVE('',#149,#156,#31,.T.);
#192=EDGE_CURVE('',#158,#151,#32,.T.);
#193=EDGE_CURVE('',#160,#152,#33,.T.);
#194=EDGE_CURVE('',#160,#161,#110,.T.);
#195=EDGE_CURVE('',#154,#161,#34,.T.);
#196=EDGE_CURVE('',#162,#160,#111,.T.);
#197=EDGE_CURVE('',#163,#162,#112,.T.);
#198=EDGE_CURVE('',#161,#163,#113,.T.);
#199=EDGE_CURVE('',#155,#150,#35,.T.);
#200=EDGE_CURVE('',#148,#153,#36,.T.);
#201=EDGE_CURVE('',#162,#157,#37,.T.);
#202=EDGE_CURVE('',#164,#164,#38,.T.);
#203=EDGE_CURVE('',#165,#165,#39,.T.);
#204=EDGE_CURVE('',#166,#166,#40,.T.);
#205=EDGE_CURVE('',#167,#168,#15,.T.);
#206=EDGE_CURVE('',#167,#169,#114,.T.);
#207=EDGE_CURVE('',#169,#170,#41,.T.);
#208=EDGE_CURVE('',#171,#170,#115,.T.);
#209=EDGE_CURVE('',#168,#171,#16,.T.);
#210=EDGE_CURVE('',#171,#172,#116,.T.);
#211=EDGE_CURVE('',#170,#173,#117,.T.);
#212=EDGE_CURVE('',#172,#173,#118,.T.);
#213=EDGE_CURVE('',#174,#167,#119,.T.);
#214=EDGE_CURVE('',#175,#174,#120,.T.);
#215=EDGE_CURVE('',#175,#169,#121,.T.);
#216=EDGE_CURVE('',#173,#175,#122,.T.);
#217=EDGE_CURVE('',#168,#168,#42,.T.);
#218=EDGE_CURVE('',#172,#174,#43,.T.);
#219=EDGE_CURVE('',#176,#176,#44,.T.);
#220=EDGE_CURVE('',#177,#177,#45,.T.);
#221=EDGE_CURVE('',#178,#178,#46,.T.);
#222=EDGE_CURVE('',#159,#163,#47,.T.);
#223=ORIENTED_EDGE('',*,*,#179,.F.);
#224=ORIENTED_EDGE('',*,*,#180,.F.);
#225=ORIENTED_EDGE('',*,*,#181,.F.);
#226=ORIENTED_EDGE('',*,*,#182,.T.);
#227=ORIENTED_EDGE('',*,*,#183,.F.);
#228=ORIENTED_EDGE('',*,*,#184,.T.);
#229=ORIENTED_EDGE('',*,*,#185,.F.);
#230=ORIENTED_EDGE('',*,*,#186,.F.);
#231=ORIENTED_EDGE('',*,*,#187,.F.);
#232=ORIENTED_EDGE('',*,*,#188,.F.);
#233=ORIENTED_EDGE('',*,*,#189,.F.);
#234=ORIENTED_EDGE('',*,*,#190,.F.);
#235=ORIENTED_EDGE('',*,*,#191,.F.);
#236=ORIENTED_EDGE('',*,*,#182,.F.);
#237=ORIENTED_EDGE('',*,*,#192,.F.);
#238=ORIENTED_EDGE('',*,*,#188,.T.);
#239=ORIENTED_EDGE('',*,*,#193,.F.);
#240=ORIENTED_EDGE('',*,*,#194,.T.);
#241=ORIENTED_EDGE('',*,*,#195,.F.);
#242=ORIENTED_EDGE('',*,*,#184,.F.);
#243=ORIENTED_EDGE('',*,*,#196,.F.);
#244=ORIENTED_EDGE('',*,*,#197,.F.);
#245=ORIENTED_EDGE('',*,*,#198,.F.);
#246=ORIENTED_EDGE('',*,*,#194,.F.);
#247=ORIENTED_EDGE('',*,*,#186,.T.);
#248=ORIENTED_EDGE('',*,*,#199,.T.);
#249=ORIENTED_EDGE('',*,*,#180,.T.);
#250=ORIENTED_EDGE('',*,*,#200,.T.);
#251=ORIENTED_EDGE('',*,*,#196,.T.);
#252=ORIENTED_EDGE('',*,*,#193,.T.);
#253=ORIENTED_EDGE('',*,*,#183,.T.);
#254=ORIENTED_EDGE('',*,*,#200,.F.);
#255=ORIENTED_EDGE('',*,*,#179,.T.);
#256=ORIENTED_EDGE('',*,*,#191,.T.);
#257=ORIENTED_EDGE('',*,*,#187,.T.);
#258=ORIENTED_EDGE('',*,*,#201,.F.);
#259=ORIENTED_EDGE('',*,*,#202,.T.);
#260=ORIENTED_EDGE('',*,*,#202,.F.);
#261=ORIENTED_EDGE('',*,*,#203,.F.);
#262=ORIENTED_EDGE('',*,*,#203,.T.);
#263=ORIENTED_EDGE('',*,*,#204,.F.);
#264=ORIENTED_EDGE('',*,*,#205,.F.);
#265=ORIENTED_EDGE('',*,*,#206,.T.);
#266=ORIENTED_EDGE('',*,*,#207,.T.);
#267=ORIENTED_EDGE('',*,*,#208,.F.);
#268=ORIENTED_EDGE('',*,*,#209,.F.);
#269=ORIENTED_EDGE('',*,*,#210,.F.);
#270=ORIENTED_EDGE('',*,*,#208,.T.);
#271=ORIENTED_EDGE('',*,*,#211,.T.);
#272=ORIENTED_EDGE('',*,*,#212,.F.);
#273=ORIENTED_EDGE('',*,*,#213,.F.);
#274=ORIENTED_EDGE('',*,*,#214,.F.);
#275=ORIENTED_EDGE('',*,*,#215,.T.);
#276=ORIENTED_EDGE('',*,*,#206,.F.);
#277=ORIENTED_EDGE('',*,*,#216,.F.);
#278=ORIENTED_EDGE('',*,*,#211,.F.);
#279=ORIENTED_EDGE('',*,*,#207,.F.);
#280=ORIENTED_EDGE('',*,*,#215,.F.);
#281=ORIENTED_EDGE('',*,*,#213,.T.);
#282=ORIENTED_EDGE('',*,*,#205,.T.);
#283=ORIENTED_EDGE('',*,*,#217,.F.);
#284=ORIENTED_EDGE('',*,*,#209,.T.);
#285=ORIENTED_EDGE('',*,*,#210,.T.);
#286=ORIENTED_EDGE('',*,*,#218,.T.);
#287=ORIENTED_EDGE('',*,*,#219,.F.);
#288=ORIENTED_EDGE('',*,*,#217,.T.);
#289=ORIENTED_EDGE('',*,*,#220,.F.);
#290=ORIENTED_EDGE('',*,*,#219,.T.);
#291=ORIENTED_EDGE('',*,*,#221,.F.);
#292=ORIENTED_EDGE('',*,*,#220,.T.);
#293=ORIENTED_EDGE('',*,*,#198,.T.);
#294=ORIENTED_EDGE('',*,*,#222,.F.);
#295=ORIENTED_EDGE('',*,*,#189,.T.);
#296=ORIENTED_EDGE('',*,*,#192,.T.);
#297=ORIENTED_EDGE('',*,*,#181,.T.);
#298=ORIENTED_EDGE('',*,*,#199,.F.);
#299=ORIENTED_EDGE('',*,*,#185,.T.);
#300=ORIENTED_EDGE('',*,*,#195,.T.);
#301=ORIENTED_EDGE('',*,*,#221,.T.);
#302=ORIENTED_EDGE('',*,*,#197,.T.);
#303=ORIENTED_EDGE('',*,*,#201,.T.);
#304=ORIENTED_EDGE('',*,*,#190,.T.);
#305=ORIENTED_EDGE('',*,*,#222,.T.);
#306=ORIENTED_EDGE('',*,*,#214,.T.);
#307=ORIENTED_EDGE('',*,*,#218,.F.);
#308=ORIENTED_EDGE('',*,*,#212,.T.);
#309=ORIENTED_EDGE('',*,*,#216,.T.);
#310=ORIENTED_EDGE('',*,*,#204,.T.);
#311=PLANE('',#355);
#312=PLANE('',#356);
#313=PLANE('',#357);
#314=PLANE('',#358);
#315=PLANE('',#361);
#316=PLANE('',#364);
#317=PLANE('',#365);
#318=PLANE('',#371);
#319=PLANE('',#377);
#320=PLANE('',#378);
#321=PLANE('',#379);
#322=PLANE('',#383);
#323=PLANE('',#387);
#324=PLANE('',#391);
#325=PLANE('',#392);
#326=ADVANCED_FACE('',(#48),#311,.F.);
#327=ADVANCED_FACE('',(#49),#312,.F.);
#328=ADVANCED_FACE('',(#50),#313,.F.);
#329=ADVANCED_FACE('',(#51),#314,.F.);
#330=ADVANCED_FACE('',(#52),#315,.F.);
#331=ADVANCED_FACE('',(#53),#316,.F.);
#332=ADVANCED_FACE('',(#54),#317,.T.);
#333=ADVANCED_FACE('',(#55,#17),#25,.F.);
#334=ADVANCED_FACE('',(#56,#18),#318,.F.);
#335=ADVANCED_FACE('',(#57,#19),#26,.F.);
#336=ADVANCED_FACE('',(#58),#27,.F.);
#337=ADVANCED_FACE('',(#59),#319,.F.);
#338=ADVANCED_FACE('',(#60),#320,.F.);
#339=ADVANCED_FACE('',(#61),#321,.F.);
#340=ADVANCED_FACE('',(#62),#28,.T.);
#341=ADVANCED_FACE('',(#63,#20),#322,.T.);
#342=ADVANCED_FACE('',(#64,#21),#29,.T.);
#343=ADVANCED_FACE('',(#65,#22),#323,.T.);
#344=ADVANCED_FACE('',(#66,#23),#30,.T.);
#345=ADVANCED_FACE('',(#67),#324,.T.);
#346=ADVANCED_FACE('',(#68,#24),#325,.T.);
#347=CLOSED_SHELL('',(#326,#327,#328,#329,#330,#331,#332,#333,#334,#335,
#336,#337,#338,#339,#340,#341,#342,#343,#344,#345,#346));
#348=DATE_TIME_ROLE('creation_date');
#349=APPLIED_DATE_AND_TIME_ASSIGNMENT(#350,#348,(#625));
#350=DATE_AND_TIME(#351,#352);
#351=CALENDAR_DATE(2021,18,2);
#352=LOCAL_TIME(18,49,19.,#353);
#353=COORDINATED_UNIVERSAL_TIME_OFFSET(0,0,.BEHIND.);
#354=AXIS2_PLACEMENT_3D('placement',#496,#393,#394);
#355=AXIS2_PLACEMENT_3D('',#497,#395,#396);
#356=AXIS2_PLACEMENT_3D('',#506,#401,#402);
#357=AXIS2_PLACEMENT_3D('',#515,#407,#408);
#358=AXIS2_PLACEMENT_3D('',#524,#413,#414);
#359=AXIS2_PLACEMENT_3D('',#525,#415,#416);
#360=AXIS2_PLACEMENT_3D('',#526,#417,#418);
#361=AXIS2_PLACEMENT_3D('',#527,#419,#420);
#362=AXIS2_PLACEMENT_3D('',#529,#421,#422);
#363=AXIS2_PLACEMENT_3D('',#532,#424,#425);
#364=AXIS2_PLACEMENT_3D('',#533,#426,#427);
#365=AXIS2_PLACEMENT_3D('',#539,#431,#432);
#366=AXIS2_PLACEMENT_3D('',#540,#433,#434);
#367=AXIS2_PLACEMENT_3D('',#541,#435,#436);
#368=AXIS2_PLACEMENT_3D('',#542,#437,#438);
#369=AXIS2_PLACEMENT_3D('',#543,#439,#440);
#370=AXIS2_PLACEMENT_3D('',#545,#441,#442);
#371=AXIS2_PLACEMENT_3D('',#546,#443,#444);
#372=AXIS2_PLACEMENT_3D('',#548,#445,#446);
#373=AXIS2_PLACEMENT_3D('',#549,#447,#448);
#374=AXIS2_PLACEMENT_3D('',#551,#449,#450);
#375=AXIS2_PLACEMENT_3D('',#552,#451,#452);
#376=AXIS2_PLACEMENT_3D('',#568,#454,#455);
#377=AXIS2_PLACEMENT_3D('',#581,#457,#458);
#378=AXIS2_PLACEMENT_3D('',#587,#462,#463);
#379=AXIS2_PLACEMENT_3D('',#593,#467,#468);
#380=AXIS2_PLACEMENT_3D('',#595,#470,#471);
#381=AXIS2_PLACEMENT_3D('',#596,#472,#473);
#382=AXIS2_PLACEMENT_3D('',#597,#474,#475);
#383=AXIS2_PLACEMENT_3D('',#598,#476,#477);
#384=AXIS2_PLACEMENT_3D('',#600,#478,#479);
#385=AXIS2_PLACEMENT_3D('',#601,#480,#481);
#386=AXIS2_PLACEMENT_3D('',#603,#482,#483);
#387=AXIS2_PLACEMENT_3D('',#604,#484,#485);
#388=AXIS2_PLACEMENT_3D('',#606,#486,#487);
#389=AXIS2_PLACEMENT_3D('',#607,#488,#489);
#390=AXIS2_PLACEMENT_3D('',#608,#490,#491);
#391=AXIS2_PLACEMENT_3D('',#609,#492,#493);
#392=AXIS2_PLACEMENT_3D('',#610,#494,#495);
#393=DIRECTION('axis',(0.,0.,1.));
#394=DIRECTION('refdir',(1.,0.,0.));
#395=DIRECTION('center_axis',(-1.11022302462516E-16,0.,1.));
#396=DIRECTION('ref_axis',(1.,0.,8.88178419700125E-17));
#397=DIRECTION('',(1.,0.,0.));
#398=DIRECTION('',(0.,-1.,0.));
#399=DIRECTION('',(-1.,0.,0.));
#400=DIRECTION('',(0.,-1.,0.));
#401=DIRECTION('center_axis',(-1.11022302462516E-16,0.,1.));
#402=DIRECTION('ref_axis',(1.,0.,8.88178419700125E-17));
#403=DIRECTION('',(-1.,0.,0.));
#404=DIRECTION('',(0.,-1.,0.));
#405=DIRECTION('',(1.,0.,0.));
#406=DIRECTION('',(0.,-1.,0.));
#407=DIRECTION('center_axis',(-3.33066907387547E-16,0.,-1.));
#408=DIRECTION('ref_axis',(-1.,0.,3.5527136788005E-16));
#409=DIRECTION('',(-1.,0.,0.));
#410=DIRECTION('',(0.,-1.,0.));
#411=DIRECTION('',(1.,0.,0.));
#412=DIRECTION('',(0.,1.,0.));
#413=DIRECTION('center_axis',(1.,0.,0.));
#414=DIRECTION('ref_axis',(0.,0.,-1.));
#415=DIRECTION('center_axis',(-1.,0.,0.));
#416=DIRECTION('ref_axis',(0.,0.,-1.));
#417=DIRECTION('center_axis',(1.,0.,0.));
#418=DIRECTION('ref_axis',(0.,-1.,0.));
#419=DIRECTION('center_axis',(1.,0.,0.));
#420=DIRECTION('ref_axis',(0.,0.,-1.));
#421=DIRECTION('center_axis',(-1.,0.,0.));
#422=DIRECTION('ref_axis',(0.,0.,-1.));
#423=DIRECTION('',(0.,-1.,0.));
#424=DIRECTION('center_axis',(1.,0.,0.));
#425=DIRECTION('ref_axis',(0.,-1.,0.));
#426=DIRECTION('center_axis',(-3.33066907387547E-16,0.,-1.));
#427=DIRECTION('ref_axis',(-1.,0.,3.5527136788005E-16));
#428=DIRECTION('',(1.,0.,0.));
#429=DIRECTION('',(0.,1.,0.));
#430=DIRECTION('',(-1.,0.,0.));
#431=DIRECTION('center_axis',(-1.,0.,0.));
#432=DIRECTION('ref_axis',(0.,0.,1.));
#433=DIRECTION('center_axis',(-1.,0.,0.));
#434=DIRECTION('ref_axis',(0.,0.,1.));
#435=DIRECTION('center_axis',(1.,0.,0.));
#436=DIRECTION('ref_axis',(0.,0.,-1.));
#437=DIRECTION('center_axis',(1.,0.,0.));
#438=DIRECTION('ref_axis',(0.,0.,-1.));
#439=DIRECTION('center_axis',(1.,0.,0.));
#440=DIRECTION('ref_axis',(0.,0.,-1.));
#441=DIRECTION('center_axis',(1.,0.,0.));
#442=DIRECTION('ref_axis',(0.,0.,-1.));
#443=DIRECTION('center_axis',(1.,0.,0.));
#444=DIRECTION('ref_axis',(0.,0.,-1.));
#445=DIRECTION('center_axis',(-1.,0.,0.));
#446=DIRECTION('ref_axis',(0.,0.,-1.));
#447=DIRECTION('center_axis',(1.,0.,0.));
#448=DIRECTION('ref_axis',(0.,0.,-1.));
#449=DIRECTION('center_axis',(-1.,0.,0.));
#450=DIRECTION('ref_axis',(0.,0.,-1.));
#451=DIRECTION('center_axis',(0.,1.,0.));
#452=DIRECTION('ref_axis',(0.,0.,-1.));
#453=DIRECTION('',(0.,1.,0.));
#454=DIRECTION('center_axis',(0.,1.,0.));
#455=DIRECTION('ref_axis',(0.,0.,-1.));
#456=DIRECTION('',(0.,1.,0.));
#457=DIRECTION('center_axis',(-5.55111512312578E-17,0.,1.));
#458=DIRECTION('ref_axis',(1.,0.,4.44089209850063E-17));
#459=DIRECTION('',(1.,0.,0.));
#460=DIRECTION('',(1.,0.,5.55111512312578E-17));
#461=DIRECTION('',(0.,1.,0.));
#462=DIRECTION('center_axis',(-5.55111512312578E-17,0.,-1.));
#463=DIRECTION('ref_axis',(-1.,0.,4.44089209850063E-17));
#464=DIRECTION('',(-1.,0.,0.));
#465=DIRECTION('',(0.,-1.,0.));
#466=DIRECTION('',(-1.,0.,5.55111512312578E-17));
#467=DIRECTION('center_axis',(0.,1.,0.));
#468=DIRECTION('ref_axis',(0.,0.,1.));
#469=DIRECTION('',(0.,0.,-1.));
#470=DIRECTION('center_axis',(-1.,0.,0.));
#471=DIRECTION('ref_axis',(0.,-1.,0.));
#472=DIRECTION('center_axis',(-1.,0.,0.));
#473=DIRECTION('ref_axis',(0.,0.,1.));
#474=DIRECTION('center_axis',(-1.,0.,0.));
#475=DIRECTION('ref_axis',(0.,0.,1.));
#476=DIRECTION('center_axis',(1.,0.,0.));
#477=DIRECTION('ref_axis',(0.,0.,-1.));
#478=DIRECTION('center_axis',(-1.,0.,0.));
#479=DIRECTION('ref_axis',(0.,0.,1.));
#480=DIRECTION('center_axis',(-1.,0.,0.));
#481=DIRECTION('ref_axis',(0.,-1.,0.));
#482=DIRECTION('center_axis',(-1.,0.,0.));
#483=DIRECTION('ref_axis',(0.,0.,1.));
#484=DIRECTION('center_axis',(1.,0.,0.));
#485=DIRECTION('ref_axis',(0.,0.,-1.));
#486=DIRECTION('center_axis',(-1.,0.,0.));
#487=DIRECTION('ref_axis',(0.,0.,1.));
#488=DIRECTION('center_axis',(-1.,0.,0.));
#489=DIRECTION('ref_axis',(0.,-1.,0.));
#490=DIRECTION('center_axis',(-1.,0.,0.));
#491=DIRECTION('ref_axis',(0.,0.,1.));
#492=DIRECTION('center_axis',(-1.,0.,0.));
#493=DIRECTION('ref_axis',(0.,0.,1.));
#494=DIRECTION('center_axis',(1.,0.,0.));
#495=DIRECTION('ref_axis',(0.,0.,-1.));
#496=CARTESIAN_POINT('',(0.,0.,0.));
#497=CARTESIAN_POINT('Origin',(-1.,0.,4.));
#498=CARTESIAN_POINT('',(0.,11.3137084989848,4.));
#499=CARTESIAN_POINT('',(4.,11.3137084989848,4.));
#500=CARTESIAN_POINT('',(0.,11.3137084989848,4.));
#501=CARTESIAN_POINT('',(0.,13.4164078649987,4.));
#502=CARTESIAN_POINT('',(0.,0.,4.));
#503=CARTESIAN_POINT('',(4.,13.4164078649987,4.));
#504=CARTESIAN_POINT('',(17.5,13.4164078649987,4.));
#505=CARTESIAN_POINT('',(4.,0.,4.));
#506=CARTESIAN_POINT('Origin',(-1.,0.,4.));
#507=CARTESIAN_POINT('',(4.,-11.3137084989848,4.));
#508=CARTESIAN_POINT('',(0.,-11.3137084989848,4.));
#509=CARTESIAN_POINT('',(0.,-11.3137084989848,4.));
#510=CARTESIAN_POINT('',(4.,-13.4164078649987,4.));
#511=CARTESIAN_POINT('',(4.,0.,4.));
#512=CARTESIAN_POINT('',(0.,-13.4164078649987,4.));
#513=CARTESIAN_POINT('',(17.5,-13.4164078649987,4.));
#514=CARTESIAN_POINT('',(0.,0.,4.));
#515=CARTESIAN_POINT('Origin',(4.,0.,-4.));
#516=CARTESIAN_POINT('',(4.,11.3137084989848,-4.));
#517=CARTESIAN_POINT('',(0.,11.3137084989848,-4.));
#518=CARTESIAN_POINT('',(0.,11.3137084989848,-4.));
#519=CARTESIAN_POINT('',(4.,13.4164078649987,-4.));
#520=CARTESIAN_POINT('',(4.,0.,-4.));
#521=CARTESIAN_POINT('',(0.,13.4164078649987,-4.));
#522=CARTESIAN_POINT('',(17.5,13.4164078649987,-4.00000000000001));
#523=CARTESIAN_POINT('',(0.,0.,-4.));
#524=CARTESIAN_POINT('Origin',(4.,0.,4.));
#525=CARTESIAN_POINT('Origin',(4.,0.,0.));
#526=CARTESIAN_POINT('Origin',(4.,0.,0.));
#527=CARTESIAN_POINT('Origin',(4.,0.,4.));
#528=CARTESIAN_POINT('',(4.,-11.3137084989848,-4.));
#529=CARTESIAN_POINT('Origin',(4.,0.,0.));
#530=CARTESIAN_POINT('',(4.,-13.4164078649987,-4.));
#531=CARTESIAN_POINT('',(4.,0.,-4.));
#532=CARTESIAN_POINT('Origin',(4.,0.,0.));
#533=CARTESIAN_POINT('Origin',(4.,0.,-4.));
#534=CARTESIAN_POINT('',(0.,-11.3137084989848,-4.));
#535=CARTESIAN_POINT('',(0.,-11.3137084989848,-4.));
#536=CARTESIAN_POINT('',(0.,-13.4164078649987,-4.));
#537=CARTESIAN_POINT('',(0.,0.,-4.));
#538=CARTESIAN_POINT('',(17.5,-13.4164078649987,-4.00000000000001));
#539=CARTESIAN_POINT('Origin',(0.,0.,0.));
#540=CARTESIAN_POINT('Origin',(0.,0.,0.));
#541=CARTESIAN_POINT('Origin',(0.,0.,0.));
#542=CARTESIAN_POINT('Origin',(0.,0.,0.));
#543=CARTESIAN_POINT('Origin',(0.,0.,0.));
#544=CARTESIAN_POINT('',(30.,1.46957615897682E-15,12.));
#545=CARTESIAN_POINT('Origin',(30.,0.,0.));
#546=CARTESIAN_POINT('Origin',(30.,3.08395284618099E-16,-1.35604581838713E-15));
#547=CARTESIAN_POINT('',(30.,7.40911313484149E-16,6.05));
#548=CARTESIAN_POINT('Origin',(30.,0.,0.));
#549=CARTESIAN_POINT('Origin',(-10.0120039370078,0.,0.));
#550=CARTESIAN_POINT('',(73.3,0.,-6.05));
#551=CARTESIAN_POINT('Origin',(73.3,0.,0.));
#552=CARTESIAN_POINT('Origin',(54.,-7.99999999999999,1.84889274661175E-30));
#553=CARTESIAN_POINT('',(54.,-7.59934207678532,-2.5));
#554=CARTESIAN_POINT('',(51.5,-7.99999999999999,0.));
#555=CARTESIAN_POINT('Ctrl Pts',(54.,-7.59934207678532,-2.5));
#556=CARTESIAN_POINT('Ctrl Pts',(53.6837379874159,-7.59934207678532,-2.5));
#557=CARTESIAN_POINT('Ctrl Pts',(53.3479740581336,-7.62115430689562,-2.43635917936574));
#558=CARTESIAN_POINT('Ctrl Pts',(52.7327307952558,-7.69823516722536,-2.18059935848133));
#559=CARTESIAN_POINT('Ctrl Pts',(52.4530481462049,-7.75221283083078,-1.98858205213768));
#560=CARTESIAN_POINT('Ctrl Pts',(52.0114959936398,-7.85225602053764,-1.54702989957251));
#561=CARTESIAN_POINT('Ctrl Pts',(51.8194183768179,-7.90505909829186,-1.26731576271184));
#562=CARTESIAN_POINT('Ctrl Pts',(51.5636138696124,-7.97941102939896,-0.65195721487566));
#563=CARTESIAN_POINT('Ctrl Pts',(51.5,-7.99999999999999,-0.316150231665351));
#564=CARTESIAN_POINT('Ctrl Pts',(51.5,-7.99999999999999,3.46944695195361E-16));
#565=CARTESIAN_POINT('',(54.,-6.59999999999999,-2.5));
#566=CARTESIAN_POINT('',(54.,-7.99999999999999,-2.5));
#567=CARTESIAN_POINT('',(54.,-6.59999999999999,2.5));
#568=CARTESIAN_POINT('Origin',(54.,-6.59999999999999,1.84889274661175E-30));
#569=CARTESIAN_POINT('',(54.,-7.59934207678532,2.5));
#570=CARTESIAN_POINT('',(54.,-7.99999999999999,2.5));
#571=CARTESIAN_POINT('Ctrl Pts',(51.5,-7.99999999999999,-4.85722573273506E-16));
#572=CARTESIAN_POINT('Ctrl Pts',(51.5,-7.99999999999999,0.316150231665351));
#573=CARTESIAN_POINT('Ctrl Pts',(51.5636138696124,-7.97941102939896,0.651957214875656));
#574=CARTESIAN_POINT('Ctrl Pts',(51.8194183768179,-7.90505909829186,1.26731576271184));
#575=CARTESIAN_POINT('Ctrl Pts',(52.0114959936398,-7.85225602053764,1.54702989957251));
#576=CARTESIAN_POINT('Ctrl Pts',(52.4530481462049,-7.75221283083078,1.98858205213768));
#577=CARTESIAN_POINT('Ctrl Pts',(52.7327307952558,-7.69823516722536,2.18059935848133));
#578=CARTESIAN_POINT('Ctrl Pts',(53.3479740581336,-7.62115430689562,2.43635917936574));
#579=CARTESIAN_POINT('Ctrl Pts',(53.6837379874159,-7.59934207678532,2.5));
#580=CARTESIAN_POINT('Ctrl Pts',(54.,-7.59934207678532,2.5));
#581=CARTESIAN_POINT('Origin',(54.,-7.99999999999999,2.5));
#582=CARTESIAN_POINT('',(73.3,-7.59934207678532,2.5));
#583=CARTESIAN_POINT('',(62.4,-7.59934207678532,2.5));
#584=CARTESIAN_POINT('',(73.3,-6.59999999999999,2.5));
#585=CARTESIAN_POINT('',(54.,-6.59999999999999,2.5));
#586=CARTESIAN_POINT('',(73.3,-7.99999999999999,2.5));
#587=CARTESIAN_POINT('Origin',(84.,-7.99999999999999,-2.5));
#588=CARTESIAN_POINT('',(73.3,-7.59934207678532,-2.5));
#589=CARTESIAN_POINT('',(62.4,-7.59934207678532,-2.5));
#590=CARTESIAN_POINT('',(73.3,-6.59999999999999,-2.5));
#591=CARTESIAN_POINT('',(73.3,-7.99999999999999,-2.5));
#592=CARTESIAN_POINT('',(84.,-6.59999999999999,-2.5));
#593=CARTESIAN_POINT('Origin',(69.,-6.59999999999999,1.09260078831653E-16));
#594=CARTESIAN_POINT('',(73.3,-6.59999999999999,5.46300394158264E-17));
#595=CARTESIAN_POINT('Origin',(62.4,0.,0.));
#596=CARTESIAN_POINT('Origin',(51.5,0.,0.));
#597=CARTESIAN_POINT('Origin',(73.3,0.,0.));
#598=CARTESIAN_POINT('Origin',(51.5,-8.99999999999999,0.));
#599=CARTESIAN_POINT('',(51.5,-8.99999999999999,0.));
#600=CARTESIAN_POINT('Origin',(51.5,0.,0.));
#601=CARTESIAN_POINT('Origin',(43.25,0.,0.));
#602=CARTESIAN_POINT('',(35.,-9.,0.));
#603=CARTESIAN_POINT('Origin',(35.,0.,0.));
#604=CARTESIAN_POINT('Origin',(35.,-14.,0.));
#605=CARTESIAN_POINT('',(35.,-14.,0.));
#606=CARTESIAN_POINT('Origin',(35.,0.,0.));
#607=CARTESIAN_POINT('Origin',(17.5,0.,0.));
#608=CARTESIAN_POINT('Origin',(0.,0.,0.));
#609=CARTESIAN_POINT('Origin',(0.,0.,0.));
#610=CARTESIAN_POINT('Origin',(73.3,-7.99999999999999,0.));
#611=UNCERTAINTY_MEASURE_WITH_UNIT(LENGTH_MEASURE(0.01),#615,
'DISTANCE_ACCURACY_VALUE',
'Maximum model space distance between geometric entities at asserted c
onnectivities');
#612=UNCERTAINTY_MEASURE_WITH_UNIT(LENGTH_MEASURE(1.E-6),#615,
'DISTANCE_ACCURACY_VALUE',
'Maximum model space distance between geometric entities at asserted c
onnectivities');
#613=(
GEOMETRIC_REPRESENTATION_CONTEXT(3)
GLOBAL_UNCERTAINTY_ASSIGNED_CONTEXT((#611))
GLOBAL_UNIT_ASSIGNED_CONTEXT((#615,#618,#616))
REPRESENTATION_CONTEXT('','3D')
);
#614=(
GEOMETRIC_REPRESENTATION_CONTEXT(3)
GLOBAL_UNCERTAINTY_ASSIGNED_CONTEXT((#612))
GLOBAL_UNIT_ASSIGNED_CONTEXT((#615,#618,#616))
REPRESENTATION_CONTEXT('','3D')
);
#615=(
LENGTH_UNIT()
NAMED_UNIT(*)
SI_UNIT(.MILLI.,.METRE.)
);
#616=(
NAMED_UNIT(*)
SI_UNIT($,.STERADIAN.)
SOLID_ANGLE_UNIT()
);
#617=DIMENSIONAL_EXPONENTS(0.,0.,0.,0.,0.,0.,0.);
#618=(
CONVERSION_BASED_UNIT('degree',#620)
NAMED_UNIT(#617)
PLANE_ANGLE_UNIT()
);
#619=(
NAMED_UNIT(*)
PLANE_ANGLE_UNIT()
SI_UNIT($,.RADIAN.)
);
#620=PLANE_ANGLE_MEASURE_WITH_UNIT(PLANE_ANGLE_MEASURE(0.01745329252),#619);
#621=SHAPE_DEFINITION_REPRESENTATION(#622,#623);
#622=PRODUCT_DEFINITION_SHAPE('',$,#625);
#623=SHAPE_REPRESENTATION('',(#354),#613);
#624=PRODUCT_DEFINITION_CONTEXT('part definition',#629,'design');
#625=PRODUCT_DEFINITION('axe_porte_outil_cone F_1',
'axe_porte_outil_cone F_1',#626,#624);
#626=PRODUCT_DEFINITION_FORMATION('',$,#631);
#627=PRODUCT_RELATED_PRODUCT_CATEGORY('axe_porte_outil_cone F_1',
'axe_porte_outil_cone F_1',(#631));
#628=APPLICATION_PROTOCOL_DEFINITION('international standard',
'automotive_design',2009,#629);
#629=APPLICATION_CONTEXT(
'Core Data for Automotive Mechanical Design Process');
#630=PRODUCT_CONTEXT('part definition',#629,'mechanical');
#631=PRODUCT('axe_porte_outil_cone F_1','axe_porte_outil_cone F_1',$,(#630));
#632=PRESENTATION_STYLE_ASSIGNMENT((#633));
#633=SURFACE_STYLE_USAGE(.BOTH.,#634);
#634=SURFACE_SIDE_STYLE('',(#635));
#635=SURFACE_STYLE_FILL_AREA(#636);
#636=FILL_AREA_STYLE('',(#637));
#637=FILL_AREA_STYLE_COLOUR('',#638);
#638=COLOUR_RGB('',0.745098039215686,0.737254901960784,0.729411764705882);
ENDSEC;
END-ISO-10303-21;
