ISO-10303-21;
HEADER;
FILE_DESCRIPTION (( 'STEP AP214' ),
    '1' );
FILE_NAME ('000048_02_Entretoise.STEP',
    '2020-08-06T18:28:34',
    ( '' ),
    ( '' ),
    'SwSTEP 2.0',
    'SolidWorks 2014',
    '' );
FILE_SCHEMA (( 'AUTOMOTIVE_DESIGN' ));
ENDSEC;

DATA;
#1 = CARTESIAN_POINT ( 'NONE',  ( 0.0000000000000000000, 6.619260951922789200, 9.000000000000000000 ) ) ;
#2 = CARTESIAN_POINT ( 'NONE',  ( -9.000000000000000000, -3.980102097228897700E-016, 0.0000000000000000000 ) ) ;
#3 = FILL_AREA_STYLE_COLOUR ( '', #154 ) ;
#4 = EDGE_LOOP ( 'NONE', ( #239, #82 ) ) ;
#5 = CARTESIAN_POINT ( 'NONE',  ( 1.102182119232617700E-015, 0.4999999999999987200, -9.000000000000000000 ) ) ;
#6 = AXIS2_PLACEMENT_3D ( 'NONE', #124, #181, #71 ) ;
#7 = EDGE_LOOP ( 'NONE', ( #78, #275, #48, #231 ) ) ;
#8 = EDGE_CURVE ( 'NONE', #277, #86, #252, .T. ) ;
#9 =( GEOMETRIC_REPRESENTATION_CONTEXT ( 3 ) GLOBAL_UNCERTAINTY_ASSIGNED_CONTEXT ( ( #216 ) ) GLOBAL_UNIT_ASSIGNED_CONTEXT ( ( #165, #281, #14 ) ) REPRESENTATION_CONTEXT ( 'NONE', 'WORKASPACE' ) );
#10 = VERTEX_POINT ( 'NONE', #120 ) ;
#11 = ADVANCED_FACE ( 'NONE', ( #311 ), #302, .T. ) ;
#12 = DIRECTION ( 'NONE',  ( 0.0000000000000000000, 0.0000000000000000000, 1.000000000000000000 ) ) ;
#13 = ORIENTED_EDGE ( 'NONE', *, *, #293, .F. ) ;
#14 =( NAMED_UNIT ( * ) SI_UNIT ( $, .STERADIAN. ) SOLID_ANGLE_UNIT ( ) );
#15 = DIRECTION ( 'NONE',  ( 0.0000000000000000000, 0.0000000000000000000, 1.000000000000000000 ) ) ;
#16 = AXIS2_PLACEMENT_3D ( 'NONE', #242, #259, #247 ) ;
#17 = DIRECTION ( 'NONE',  ( -0.0000000000000000000, 1.000000000000000000, -0.0000000000000000000 ) ) ;
#18 = DIRECTION ( 'NONE',  ( 0.0000000000000000000, 0.0000000000000000000, 1.000000000000000000 ) ) ;
#19 = LINE ( 'NONE', #207, #140 ) ;
#20 = FILL_AREA_STYLE ('',( #3 ) ) ;
#21 = CLOSED_SHELL ( 'NONE', ( #110, #183, #314, #149, #73, #99, #11, #121, #103, #292 ) ) ;
#22 = SURFACE_STYLE_USAGE ( .BOTH. , #306 ) ;
#23 = CARTESIAN_POINT ( 'NONE',  ( 0.0000000000000000000, 6.799999999999998900, 0.0000000000000000000 ) ) ;
#24 = CIRCLE ( 'NONE', #188, 15.00000000000000000 ) ;
#25 = STYLED_ITEM ( 'NONE', ( #158 ), #163 ) ;
#26 = DIRECTION ( 'NONE',  ( 0.0000000000000000000, 1.000000000000000000, 0.0000000000000000000 ) ) ;
#27 = UNCERTAINTY_MEASURE_WITH_UNIT (LENGTH_MEASURE( 1.000000000000000100E-005 ), #114, 'distance_accuracy_value', 'NONE');
#28 = EDGE_LOOP ( 'NONE', ( #161, #31, #272, #126 ) ) ;
#29 = PRODUCT_DEFINITION_FORMATION_WITH_SPECIFIED_SOURCE ( 'ANY', '', #156, .NOT_KNOWN. ) ;
#30 = AXIS2_PLACEMENT_3D ( 'NONE', #310, #198, #271 ) ;
#31 = ORIENTED_EDGE ( 'NONE', *, *, #293, .T. ) ;
#32 = CONICAL_SURFACE ( 'NONE', #230, 9.499999999999998200, 0.7853981633974482800 ) ;
#33 = AXIS2_PLACEMENT_3D ( 'NONE', #236, #116, #12 ) ;
#34 = VECTOR ( 'NONE', #142, 1000.000000000000100 ) ;
#35 = AXIS2_PLACEMENT_3D ( 'NONE', #257, #304, #248 ) ;
#36 = APPLICATION_CONTEXT ( 'automotive_design' ) ;
#37 = EDGE_CURVE ( 'NONE', #266, #144, #119, .T. ) ;
#38 = ORIENTED_EDGE ( 'NONE', *, *, #159, .T. ) ;
#39 = FACE_OUTER_BOUND ( 'NONE', #4, .T. ) ;
#40 = CARTESIAN_POINT ( 'NONE',  ( 1.102182119232617700E-015, 6.299999999999999800, -9.000000000000000000 ) ) ;
#41 = PRESENTATION_LAYER_ASSIGNMENT (  '', '', ( #25 ) ) ;
#42 = FACE_OUTER_BOUND ( 'NONE', #7, .T. ) ;
#43 = CARTESIAN_POINT ( 'NONE',  ( 0.0000000000000000000, 6.799999999999998900, 0.0000000000000000000 ) ) ;
#44 = EDGE_CURVE ( 'NONE', #175, #260, #187, .T. ) ;
#45 = DIRECTION ( 'NONE',  ( 0.0000000000000000000, 0.0000000000000000000, 1.000000000000000000 ) ) ;
#46 = SURFACE_STYLE_FILL_AREA ( #240 ) ;
#47 = DIRECTION ( 'NONE',  ( 0.0000000000000000000, -0.0000000000000000000, -1.000000000000000000 ) ) ;
#48 = ORIENTED_EDGE ( 'NONE', *, *, #67, .T. ) ;
#49 = FACE_BOUND ( 'NONE', #72, .T. ) ;
#50 = CARTESIAN_POINT ( 'NONE',  ( 0.0000000000000000000, -3.980102097228897700E-016, -9.499999999999998200 ) ) ;
#51 = EDGE_CURVE ( 'NONE', #86, #277, #246, .T. ) ;
#52 = STYLED_ITEM ( 'NONE', ( #60 ), #131 ) ;
#53 = ORIENTED_EDGE ( 'NONE', *, *, #211, .T. ) ;
#54 = ORIENTED_EDGE ( 'NONE', *, *, #215, .F. ) ;
#55 = FACE_OUTER_BOUND ( 'NONE', #157, .T. ) ;
#56 = AXIS2_PLACEMENT_3D ( 'NONE', #93, #308, #261 ) ;
#57 = APPLICATION_PROTOCOL_DEFINITION ( 'draft international standard', 'automotive_design', 1998, #36 ) ;
#58 = ORIENTED_EDGE ( 'NONE', *, *, #37, .T. ) ;
#59 = CARTESIAN_POINT ( 'NONE',  ( 0.0000000000000000000, 6.619260951922789200, 0.0000000000000000000 ) ) ;
#60 = PRESENTATION_STYLE_ASSIGNMENT (( #22 ) ) ;
#61 = FILL_AREA_STYLE_COLOUR ( '', #224 ) ;
#62 = ORIENTED_EDGE ( 'NONE', *, *, #44, .F. ) ;
#63 = AXIS2_PLACEMENT_3D ( 'NONE', #191, #69, #152 ) ;
#64 = DIRECTION ( 'NONE',  ( -0.0000000000000000000, -1.000000000000000000, -0.0000000000000000000 ) ) ;
#65 = DIRECTION ( 'NONE',  ( 0.0000000000000000000, 0.0000000000000000000, 1.000000000000000000 ) ) ;
#66 = EDGE_LOOP ( 'NONE', ( #118, #194, #146, #104 ) ) ;
#67 = EDGE_CURVE ( 'NONE', #298, #129, #185, .T. ) ;
#68 = ORIENTED_EDGE ( 'NONE', *, *, #186, .T. ) ;
#69 = DIRECTION ( 'NONE',  ( -0.0000000000000000000, 1.000000000000000000, -0.0000000000000000000 ) ) ;
#70 = DIRECTION ( 'NONE',  ( 0.0000000000000000000, -0.7071067811865474600, -0.7071067811865474600 ) ) ;
#71 = DIRECTION ( 'NONE',  ( 0.0000000000000000000, 0.0000000000000000000, -1.000000000000000000 ) ) ;
#72 = EDGE_LOOP ( 'NONE', ( #199, #217 ) ) ;
#73 = ADVANCED_FACE ( 'NONE', ( #55 ), #177, .F. ) ;
#74 = FACE_OUTER_BOUND ( 'NONE', #79, .T. ) ;
#75 = EDGE_CURVE ( 'NONE', #192, #128, #237, .T. ) ;
#76 = DIRECTION ( 'NONE',  ( 0.0000000000000000000, 0.0000000000000000000, 1.000000000000000000 ) ) ;
#77 = CARTESIAN_POINT ( 'NONE',  ( 0.0000000000000000000, 6.299999999999999800, 0.0000000000000000000 ) ) ;
#78 = ORIENTED_EDGE ( 'NONE', *, *, #75, .T. ) ;
#79 = EDGE_LOOP ( 'NONE', ( #95, #287, #68, #228 ) ) ;
#80 = MECHANICAL_DESIGN_GEOMETRIC_PRESENTATION_REPRESENTATION (  '', ( #52 ), #101 ) ;
#81 = VECTOR ( 'NONE', #17, 1000.000000000000000 ) ;
#82 = ORIENTED_EDGE ( 'NONE', *, *, #211, .F. ) ;
#83 = AXIS2_PLACEMENT_3D ( 'NONE', #190, #312, #18 ) ;
#84 = PRODUCT_DEFINITION_SHAPE ( 'NONE', 'NONE',  #132 ) ;
#85 = ORIENTED_EDGE ( 'NONE', *, *, #44, .T. ) ;
#86 = VERTEX_POINT ( 'NONE', #179 ) ;
#87 = DIRECTION ( 'NONE',  ( 0.0000000000000000000, 0.0000000000000000000, 1.000000000000000000 ) ) ;
#88 = SURFACE_SIDE_STYLE ('',( #46 ) ) ;
#89 = VECTOR ( 'NONE', #70, 1000.000000000000100 ) ;
#90 = CARTESIAN_POINT ( 'NONE',  ( 0.0000000000000000000, -8.673617379884035500E-016, 0.0000000000000000000 ) ) ;
#91 = DIRECTION ( 'NONE',  ( -0.0000000000000000000, 1.000000000000000000, -0.0000000000000000000 ) ) ;
#92 = AXIS2_PLACEMENT_3D ( 'NONE', #115, #148, #65 ) ;
#93 = CARTESIAN_POINT ( 'NONE',  ( 0.0000000000000000000, -3.980102097228897700E-016, 0.0000000000000000000 ) ) ;
#94 =( GEOMETRIC_REPRESENTATION_CONTEXT ( 3 ) GLOBAL_UNCERTAINTY_ASSIGNED_CONTEXT ( ( #27 ) ) GLOBAL_UNIT_ASSIGNED_CONTEXT ( ( #114, #282, #136 ) ) REPRESENTATION_CONTEXT ( 'NONE', 'WORKASPACE' ) );
#95 = ORIENTED_EDGE ( 'NONE', *, *, #226, .F. ) ;
#96 = LINE ( 'NONE', #102, #280 ) ;
#97 = ORIENTED_EDGE ( 'NONE', *, *, #159, .F. ) ;
#98 = DIRECTION ( 'NONE',  ( -0.0000000000000000000, 1.000000000000000000, -0.0000000000000000000 ) ) ;
#99 = ADVANCED_FACE ( 'NONE', ( #49, #112 ), #294, .T. ) ;
#100 = LINE ( 'NONE', #1, #273 ) ;
#101 =( GEOMETRIC_REPRESENTATION_CONTEXT ( 3 ) GLOBAL_UNCERTAINTY_ASSIGNED_CONTEXT ( ( #274 ) ) GLOBAL_UNIT_ASSIGNED_CONTEXT ( ( #223, #196, #197 ) ) REPRESENTATION_CONTEXT ( 'NONE', 'WORKASPACE' ) );
#102 = CARTESIAN_POINT ( 'NONE',  ( 1.102182119232617700E-015, 6.619260951922789200, -9.000000000000000000 ) ) ;
#103 = ADVANCED_FACE ( 'NONE', ( #299 ), #32, .F. ) ;
#104 = ORIENTED_EDGE ( 'NONE', *, *, #186, .F. ) ;
#105 = AXIS2_PLACEMENT_3D ( 'NONE', #113, #278, #134 ) ;
#106 = FACE_OUTER_BOUND ( 'NONE', #66, .T. ) ;
#107 = VECTOR ( 'NONE', #270, 1000.000000000000000 ) ;
#108 = CONICAL_SURFACE ( 'NONE', #33, 9.000000000000000000, 0.7853981633974447300 ) ;
#109 = AXIS2_PLACEMENT_3D ( 'NONE', #162, #160, #172 ) ;
#110 = ADVANCED_FACE ( 'NONE', ( #106 ), #218, .F. ) ;
#111 = EDGE_LOOP ( 'NONE', ( #85, #38 ) ) ;
#112 = FACE_OUTER_BOUND ( 'NONE', #111, .T. ) ;
#113 = CARTESIAN_POINT ( 'NONE',  ( 0.0000000000000000000, 6.299999999999999800, 0.0000000000000000000 ) ) ;
#114 =( LENGTH_UNIT ( ) NAMED_UNIT ( * ) SI_UNIT ( .MILLI., .METRE. ) );
#115 = CARTESIAN_POINT ( 'NONE',  ( 0.0000000000000000000, 6.799999999999998900, 0.0000000000000000000 ) ) ;
#116 = DIRECTION ( 'NONE',  ( 0.0000000000000000000, 1.000000000000000000, 0.0000000000000000000 ) ) ;
#117 = DIRECTION ( 'NONE',  ( 0.0000000000000000000, 0.0000000000000000000, -1.000000000000000000 ) ) ;
#118 = ORIENTED_EDGE ( 'NONE', *, *, #67, .F. ) ;
#119 = CIRCLE ( 'NONE', #56, 9.499999999999998200 ) ;
#120 = CARTESIAN_POINT ( 'NONE',  ( 1.836970198721029600E-015, -8.673617379884035500E-016, -15.00000000000000000 ) ) ;
#121 = ADVANCED_FACE ( 'NONE', ( #164, #39 ), #286, .T. ) ;
#122 = CARTESIAN_POINT ( 'NONE',  ( 0.0000000000000000000, 0.4999999999999987200, 9.000000000000000000 ) ) ;
#123 = EDGE_CURVE ( 'NONE', #128, #298, #96, .T. ) ;
#124 = CARTESIAN_POINT ( 'NONE',  ( 0.0000000000000000000, 0.0000000000000000000, 0.0000000000000000000 ) ) ;
#125 = MECHANICAL_DESIGN_GEOMETRIC_PRESENTATION_REPRESENTATION (  '', ( #25 ), #94 ) ;
#126 = ORIENTED_EDGE ( 'NONE', *, *, #200, .F. ) ;
#127 = SURFACE_STYLE_FILL_AREA ( #20 ) ;
#128 = VERTEX_POINT ( 'NONE', #5 ) ;
#129 = VERTEX_POINT ( 'NONE', #210 ) ;
#130 = EDGE_CURVE ( 'NONE', #144, #266, #166, .T. ) ;
#131 = MANIFOLD_SOLID_BREP ( 'Chanfrein1', #21 ) ;
#132 = PRODUCT_DEFINITION ( 'UNKNOWN', '', #29, #227 ) ;
#133 = EDGE_LOOP ( 'NONE', ( #184, #208, #62, #54 ) ) ;
#134 = DIRECTION ( 'NONE',  ( 0.0000000000000000000, 0.0000000000000000000, 1.000000000000000000 ) ) ;
#135 = VERTEX_POINT ( 'NONE', #250 ) ;
#136 =( NAMED_UNIT ( * ) SI_UNIT ( $, .STERADIAN. ) SOLID_ANGLE_UNIT ( ) );
#137 = CARTESIAN_POINT ( 'NONE',  ( 1.836970198721029600E-015, 6.619260951922789200, -15.00000000000000000 ) ) ;
#138 = CARTESIAN_POINT ( 'NONE',  ( 0.0000000000000000000, -8.673617379884035500E-016, 0.0000000000000000000 ) ) ;
#139 = CARTESIAN_POINT ( 'NONE',  ( 0.0000000000000000000, 0.4999999999999987200, 0.0000000000000000000 ) ) ;
#140 = VECTOR ( 'NONE', #238, 1000.000000000000100 ) ;
#141 = DIRECTION ( 'NONE',  ( 0.0000000000000000000, 0.0000000000000000000, 1.000000000000000000 ) ) ;
#142 = DIRECTION ( 'NONE',  ( 0.0000000000000000000, 0.7071067811865500200, 0.7071067811865451300 ) ) ;
#143 = EDGE_CURVE ( 'NONE', #10, #260, #180, .T. ) ;
#144 = VERTEX_POINT ( 'NONE', #50 ) ;
#145 = CARTESIAN_POINT ( 'NONE',  ( 0.0000000000000000000, 6.619260951922789200, 0.0000000000000000000 ) ) ;
#146 = ORIENTED_EDGE ( 'NONE', *, *, #8, .F. ) ;
#147 = EDGE_LOOP ( 'NONE', ( #13, #255, #235, #204 ) ) ;
#148 = DIRECTION ( 'NONE',  ( -0.0000000000000000000, 1.000000000000000000, -0.0000000000000000000 ) ) ;
#149 = ADVANCED_FACE ( 'NONE', ( #42 ), #232, .F. ) ;
#150 = CIRCLE ( 'NONE', #105, 9.000000000000000000 ) ;
#151 = DIRECTION ( 'NONE',  ( 0.0000000000000000000, 0.0000000000000000000, 1.000000000000000000 ) ) ;
#152 = DIRECTION ( 'NONE',  ( 0.0000000000000000000, 0.0000000000000000000, 1.000000000000000000 ) ) ;
#153 = EDGE_LOOP ( 'NONE', ( #279, #53, #254, #97 ) ) ;
#154 = COLOUR_RGB ( '',0.5294117647058823600, 0.5490196078431373000, 0.5490196078431373000 ) ;
#155 = CONICAL_SURFACE ( 'NONE', #6, 9.499999999999998200, 0.7853981633974482800 ) ;
#156 = PRODUCT ( '000048_02_Entretoise', '000048_02_Entretoise', '', ( #213 ) ) ;
#157 = EDGE_LOOP ( 'NONE', ( #201, #221, #301, #265 ) ) ;
#158 = PRESENTATION_STYLE_ASSIGNMENT (( #256 ) ) ;
#159 = EDGE_CURVE ( 'NONE', #260, #175, #290, .T. ) ;
#160 = DIRECTION ( 'NONE',  ( 0.0000000000000000000, 0.0000000000000000000, 1.000000000000000000 ) ) ;
#161 = ORIENTED_EDGE ( 'NONE', *, *, #75, .F. ) ;
#162 = CARTESIAN_POINT ( 'NONE',  ( 0.0000000000000000000, 0.0000000000000000000, 0.0000000000000000000 ) ) ;
#163 = ADVANCED_BREP_SHAPE_REPRESENTATION ( '000048_02_Entretoise', ( #131, #109 ), #9 ) ;
#164 = FACE_BOUND ( 'NONE', #244, .T. ) ;
#165 =( LENGTH_UNIT ( ) NAMED_UNIT ( * ) SI_UNIT ( .MILLI., .METRE. ) );
#166 = CIRCLE ( 'NONE', #174, 9.499999999999998200 ) ;
#167 = DIRECTION ( 'NONE',  ( 0.0000000000000000000, 0.0000000000000000000, 1.000000000000000000 ) ) ;
#168 = FACE_OUTER_BOUND ( 'NONE', #28, .T. ) ;
#169 = CARTESIAN_POINT ( 'NONE',  ( 0.0000000000000000000, 0.0000000000000000000, 0.0000000000000000000 ) ) ;
#170 = AXIS2_PLACEMENT_3D ( 'NONE', #90, #305, #167 ) ;
#171 = DIRECTION ( 'NONE',  ( 0.0000000000000000000, 0.0000000000000000000, -1.000000000000000000 ) ) ;
#172 = DIRECTION ( 'NONE',  ( 1.000000000000000000, 0.0000000000000000000, 0.0000000000000000000 ) ) ;
#173 = DIRECTION ( 'NONE',  ( 0.0000000000000000000, -1.000000000000000000, 0.0000000000000000000 ) ) ;
#174 = AXIS2_PLACEMENT_3D ( 'NONE', #245, #225, #219 ) ;
#175 = VERTEX_POINT ( 'NONE', #262 ) ;
#176 = CARTESIAN_POINT ( 'NONE',  ( 1.102182119232617700E-015, 6.299999999999999800, -9.000000000000000000 ) ) ;
#177 = CYLINDRICAL_SURFACE ( 'NONE', #63, 9.000000000000000000 ) ;
#178 = DIRECTION ( 'NONE',  ( 0.0000000000000000000, 0.0000000000000000000, 1.000000000000000000 ) ) ;
#179 = CARTESIAN_POINT ( 'NONE',  ( 1.163414459189984900E-015, 6.799999999999998900, -9.499999999999994700 ) ) ;
#180 = LINE ( 'NONE', #137, #107 ) ;
#181 = DIRECTION ( 'NONE',  ( -0.0000000000000000000, -1.000000000000000000, -0.0000000000000000000 ) ) ;
#182 = EDGE_CURVE ( 'NONE', #128, #192, #289, .T. ) ;
#183 = ADVANCED_FACE ( 'NONE', ( #168 ), #155, .F. ) ;
#184 = ORIENTED_EDGE ( 'NONE', *, *, #263, .T. ) ;
#185 = CIRCLE ( 'NONE', #30, 9.000000000000000000 ) ;
#186 = EDGE_CURVE ( 'NONE', #129, #277, #222, .T. ) ;
#187 = CIRCLE ( 'NONE', #92, 15.00000000000000000 ) ;
#188 = AXIS2_PLACEMENT_3D ( 'NONE', #138, #258, #141 ) ;
#189 = APPLICATION_PROTOCOL_DEFINITION ( 'draft international standard', 'automotive_design', 1998, #209 ) ;
#190 = CARTESIAN_POINT ( 'NONE',  ( -9.000000000000000000, 6.799999999999998900, 0.0000000000000000000 ) ) ;
#191 = CARTESIAN_POINT ( 'NONE',  ( 0.0000000000000000000, 6.619260951922789200, 0.0000000000000000000 ) ) ;
#192 = VERTEX_POINT ( 'NONE', #122 ) ;
#193 = DIRECTION ( 'NONE',  ( 0.0000000000000000000, -1.000000000000000000, 0.0000000000000000000 ) ) ;
#194 = ORIENTED_EDGE ( 'NONE', *, *, #226, .T. ) ;
#195 = CARTESIAN_POINT ( 'NONE',  ( 0.0000000000000000000, 6.299999999999999800, 9.000000000000000000 ) ) ;
#196 =( NAMED_UNIT ( * ) PLANE_ANGLE_UNIT ( ) SI_UNIT ( $, .RADIAN. ) );
#197 =( NAMED_UNIT ( * ) SI_UNIT ( $, .STERADIAN. ) SOLID_ANGLE_UNIT ( ) );
#198 = DIRECTION ( 'NONE',  ( 0.0000000000000000000, 1.000000000000000000, 0.0000000000000000000 ) ) ;
#199 = ORIENTED_EDGE ( 'NONE', *, *, #8, .T. ) ;
#200 = EDGE_CURVE ( 'NONE', #128, #144, #241, .T. ) ;
#201 = ORIENTED_EDGE ( 'NONE', *, *, #123, .F. ) ;
#202 = CIRCLE ( 'NONE', #170, 15.00000000000000000 ) ;
#203 = EDGE_CURVE ( 'NONE', #192, #129, #100, .T. ) ;
#204 = ORIENTED_EDGE ( 'NONE', *, *, #37, .F. ) ;
#205 = CARTESIAN_POINT ( 'NONE',  ( 0.0000000000000000000, 6.619260951922789200, 15.00000000000000000 ) ) ;
#206 = AXIS2_PLACEMENT_3D ( 'NONE', #23, #251, #45 ) ;
#207 = CARTESIAN_POINT ( 'NONE',  ( 1.163414459189985300E-015, 0.0000000000000000000, 9.499999999999998200 ) ) ;
#208 = ORIENTED_EDGE ( 'NONE', *, *, #143, .T. ) ;
#209 = APPLICATION_CONTEXT ( 'automotive_design' ) ;
#210 = CARTESIAN_POINT ( 'NONE',  ( 0.0000000000000000000, 6.299999999999999800, 9.000000000000000000 ) ) ;
#211 = EDGE_CURVE ( 'NONE', #10, #135, #24, .T. ) ;
#212 = LINE ( 'NONE', #205, #81 ) ;
#213 = PRODUCT_CONTEXT ( 'NONE', #209, 'mechanical' ) ;
#214 = PRODUCT_RELATED_PRODUCT_CATEGORY ( 'part', '', ( #156 ) ) ;
#215 = EDGE_CURVE ( 'NONE', #135, #175, #212, .T. ) ;
#216 = UNCERTAINTY_MEASURE_WITH_UNIT (LENGTH_MEASURE( 1.000000000000000100E-005 ), #165, 'distance_accuracy_value', 'NONE');
#217 = ORIENTED_EDGE ( 'NONE', *, *, #51, .T. ) ;
#218 = CONICAL_SURFACE ( 'NONE', #313, 9.000000000000000000, 0.7853981633974447300 ) ;
#219 = DIRECTION ( 'NONE',  ( 0.0000000000000000000, 0.0000000000000000000, -1.000000000000000000 ) ) ;
#220 = DIRECTION ( 'NONE',  ( -0.0000000000000000000, -1.000000000000000000, -0.0000000000000000000 ) ) ;
#221 = ORIENTED_EDGE ( 'NONE', *, *, #182, .T. ) ;
#222 = LINE ( 'NONE', #195, #34 ) ;
#223 =( LENGTH_UNIT ( ) NAMED_UNIT ( * ) SI_UNIT ( .MILLI., .METRE. ) );
#224 = COLOUR_RGB ( '',0.5294117647058823600, 0.5490196078431373000, 0.5490196078431373000 ) ;
#225 = DIRECTION ( 'NONE',  ( -0.0000000000000000000, 1.000000000000000000, -0.0000000000000000000 ) ) ;
#226 = EDGE_CURVE ( 'NONE', #298, #86, #283, .T. ) ;
#227 = PRODUCT_DEFINITION_CONTEXT ( 'detailed design', #36, 'design' ) ;
#228 = ORIENTED_EDGE ( 'NONE', *, *, #51, .F. ) ;
#229 = SHAPE_DEFINITION_REPRESENTATION ( #84, #163 ) ;
#230 = AXIS2_PLACEMENT_3D ( 'NONE', #169, #220, #171 ) ;
#231 = ORIENTED_EDGE ( 'NONE', *, *, #203, .F. ) ;
#232 = CYLINDRICAL_SURFACE ( 'NONE', #288, 9.000000000000000000 ) ;
#233 = AXIS2_PLACEMENT_3D ( 'NONE', #145, #98, #15 ) ;
#234 = AXIS2_PLACEMENT_3D ( 'NONE', #2, #173, #47 ) ;
#235 = ORIENTED_EDGE ( 'NONE', *, *, #200, .T. ) ;
#236 = CARTESIAN_POINT ( 'NONE',  ( 0.0000000000000000000, 6.299999999999999800, 0.0000000000000000000 ) ) ;
#237 = CIRCLE ( 'NONE', #249, 9.000000000000000000 ) ;
#238 = DIRECTION ( 'NONE',  ( 8.659560562354932900E-017, -0.7071067811865474600, 0.7071067811865474600 ) ) ;
#239 = ORIENTED_EDGE ( 'NONE', *, *, #263, .F. ) ;
#240 = FILL_AREA_STYLE ('',( #61 ) ) ;
#241 = LINE ( 'NONE', #269, #89 ) ;
#242 = CARTESIAN_POINT ( 'NONE',  ( 0.0000000000000000000, 0.4999999999999987200, 0.0000000000000000000 ) ) ;
#243 = FACE_OUTER_BOUND ( 'NONE', #133, .T. ) ;
#244 = EDGE_LOOP ( 'NONE', ( #309, #58 ) ) ;
#245 = CARTESIAN_POINT ( 'NONE',  ( 0.0000000000000000000, -3.980102097228897700E-016, 0.0000000000000000000 ) ) ;
#246 = CIRCLE ( 'NONE', #276, 9.499999999999994700 ) ;
#247 = DIRECTION ( 'NONE',  ( 0.0000000000000000000, 0.0000000000000000000, -1.000000000000000000 ) ) ;
#248 = DIRECTION ( 'NONE',  ( 0.0000000000000000000, 0.0000000000000000000, 1.000000000000000000 ) ) ;
#249 = AXIS2_PLACEMENT_3D ( 'NONE', #139, #64, #117 ) ;
#250 = CARTESIAN_POINT ( 'NONE',  ( 0.0000000000000000000, -8.673617379884035500E-016, 15.00000000000000000 ) ) ;
#251 = DIRECTION ( 'NONE',  ( -0.0000000000000000000, 1.000000000000000000, -0.0000000000000000000 ) ) ;
#252 = CIRCLE ( 'NONE', #35, 9.499999999999994700 ) ;
#253 = PRESENTATION_LAYER_ASSIGNMENT (  '', '', ( #52 ) ) ;
#254 = ORIENTED_EDGE ( 'NONE', *, *, #215, .T. ) ;
#255 = ORIENTED_EDGE ( 'NONE', *, *, #182, .F. ) ;
#256 = SURFACE_STYLE_USAGE ( .BOTH. , #88 ) ;
#257 = CARTESIAN_POINT ( 'NONE',  ( 0.0000000000000000000, 6.799999999999998900, 0.0000000000000000000 ) ) ;
#258 = DIRECTION ( 'NONE',  ( -0.0000000000000000000, 1.000000000000000000, -0.0000000000000000000 ) ) ;
#259 = DIRECTION ( 'NONE',  ( -0.0000000000000000000, -1.000000000000000000, -0.0000000000000000000 ) ) ;
#260 = VERTEX_POINT ( 'NONE', #307 ) ;
#261 = DIRECTION ( 'NONE',  ( 0.0000000000000000000, 0.0000000000000000000, -1.000000000000000000 ) ) ;
#262 = CARTESIAN_POINT ( 'NONE',  ( 0.0000000000000000000, 6.799999999999998900, 15.00000000000000000 ) ) ;
#263 = EDGE_CURVE ( 'NONE', #135, #10, #202, .T. ) ;
#264 = DIRECTION ( 'NONE',  ( -0.0000000000000000000, 1.000000000000000000, -0.0000000000000000000 ) ) ;
#265 = ORIENTED_EDGE ( 'NONE', *, *, #267, .T. ) ;
#266 = VERTEX_POINT ( 'NONE', #284 ) ;
#267 = EDGE_CURVE ( 'NONE', #129, #298, #150, .T. ) ;
#268 = VECTOR ( 'NONE', #297, 1000.000000000000100 ) ;
#269 = CARTESIAN_POINT ( 'NONE',  ( 0.0000000000000000000, 0.0000000000000000000, -9.499999999999998200 ) ) ;
#270 = DIRECTION ( 'NONE',  ( -0.0000000000000000000, 1.000000000000000000, -0.0000000000000000000 ) ) ;
#271 = DIRECTION ( 'NONE',  ( 0.0000000000000000000, 0.0000000000000000000, 1.000000000000000000 ) ) ;
#272 = ORIENTED_EDGE ( 'NONE', *, *, #130, .F. ) ;
#273 = VECTOR ( 'NONE', #264, 1000.000000000000000 ) ;
#274 = UNCERTAINTY_MEASURE_WITH_UNIT (LENGTH_MEASURE( 1.000000000000000100E-005 ), #223, 'distance_accuracy_value', 'NONE');
#275 = ORIENTED_EDGE ( 'NONE', *, *, #123, .T. ) ;
#276 = AXIS2_PLACEMENT_3D ( 'NONE', #43, #193, #151 ) ;
#277 = VERTEX_POINT ( 'NONE', #285 ) ;
#278 = DIRECTION ( 'NONE',  ( 0.0000000000000000000, 1.000000000000000000, 0.0000000000000000000 ) ) ;
#279 = ORIENTED_EDGE ( 'NONE', *, *, #143, .F. ) ;
#280 = VECTOR ( 'NONE', #91, 1000.000000000000000 ) ;
#281 =( NAMED_UNIT ( * ) PLANE_ANGLE_UNIT ( ) SI_UNIT ( $, .RADIAN. ) );
#282 =( NAMED_UNIT ( * ) PLANE_ANGLE_UNIT ( ) SI_UNIT ( $, .RADIAN. ) );
#283 = LINE ( 'NONE', #176, #268 ) ;
#284 = CARTESIAN_POINT ( 'NONE',  ( 1.163414459189985300E-015, -3.980102097228897700E-016, 9.499999999999998200 ) ) ;
#285 = CARTESIAN_POINT ( 'NONE',  ( 0.0000000000000000000, 6.799999999999998900, 9.499999999999994700 ) ) ;
#286 = PLANE ( 'NONE',  #234 ) ;
#287 = ORIENTED_EDGE ( 'NONE', *, *, #267, .F. ) ;
#288 = AXIS2_PLACEMENT_3D ( 'NONE', #291, #295, #76 ) ;
#289 = CIRCLE ( 'NONE', #16, 9.000000000000000000 ) ;
#290 = CIRCLE ( 'NONE', #206, 15.00000000000000000 ) ;
#291 = CARTESIAN_POINT ( 'NONE',  ( 0.0000000000000000000, 6.619260951922789200, 0.0000000000000000000 ) ) ;
#292 = ADVANCED_FACE ( 'NONE', ( #74 ), #108, .F. ) ;
#293 = EDGE_CURVE ( 'NONE', #192, #266, #19, .T. ) ;
#294 = PLANE ( 'NONE',  #83 ) ;
#295 = DIRECTION ( 'NONE',  ( -0.0000000000000000000, 1.000000000000000000, -0.0000000000000000000 ) ) ;
#296 = CYLINDRICAL_SURFACE ( 'NONE', #300, 15.00000000000000000 ) ;
#297 = DIRECTION ( 'NONE',  ( 8.659560562354904500E-017, 0.7071067811865500200, -0.7071067811865451300 ) ) ;
#298 = VERTEX_POINT ( 'NONE', #40 ) ;
#299 = FACE_OUTER_BOUND ( 'NONE', #147, .T. ) ;
#300 = AXIS2_PLACEMENT_3D ( 'NONE', #59, #303, #87 ) ;
#301 = ORIENTED_EDGE ( 'NONE', *, *, #203, .T. ) ;
#302 = CYLINDRICAL_SURFACE ( 'NONE', #233, 15.00000000000000000 ) ;
#303 = DIRECTION ( 'NONE',  ( -0.0000000000000000000, 1.000000000000000000, -0.0000000000000000000 ) ) ;
#304 = DIRECTION ( 'NONE',  ( 0.0000000000000000000, -1.000000000000000000, 0.0000000000000000000 ) ) ;
#305 = DIRECTION ( 'NONE',  ( -0.0000000000000000000, 1.000000000000000000, -0.0000000000000000000 ) ) ;
#306 = SURFACE_SIDE_STYLE ('',( #127 ) ) ;
#307 = CARTESIAN_POINT ( 'NONE',  ( 1.836970198721029600E-015, 6.799999999999998900, -15.00000000000000000 ) ) ;
#308 = DIRECTION ( 'NONE',  ( -0.0000000000000000000, 1.000000000000000000, -0.0000000000000000000 ) ) ;
#309 = ORIENTED_EDGE ( 'NONE', *, *, #130, .T. ) ;
#310 = CARTESIAN_POINT ( 'NONE',  ( 0.0000000000000000000, 6.299999999999999800, 0.0000000000000000000 ) ) ;
#311 = FACE_OUTER_BOUND ( 'NONE', #153, .T. ) ;
#312 = DIRECTION ( 'NONE',  ( -0.0000000000000000000, 1.000000000000000000, 0.0000000000000000000 ) ) ;
#313 = AXIS2_PLACEMENT_3D ( 'NONE', #77, #26, #178 ) ;
#314 = ADVANCED_FACE ( 'NONE', ( #243 ), #296, .T. ) ;
ENDSEC;
END-ISO-10303-21;
