ISO-10303-21;
HEADER;
FILE_DESCRIPTION(('STEP AP214'),'1');
FILE_NAME('PIECE A.step','2020-09-05T07:48:09',(' '),(' '),'Spatial InterOp 3D',' ',' ');
FILE_SCHEMA(('automotive_design'));
ENDSEC;
DATA;
#1=MECHANICAL_DESIGN_GEOMETRIC_PRESENTATION_REPRESENTATION(' ',(#10,#11,#12,#13,#14,#15,#16,#17,#18,#19),#6);
#2=PRODUCT_DEFINITION_CONTEXT('',#20,'design');
#3=APPLICATION_PROTOCOL_DEFINITION('INTERNATIONAL STANDARD','automotive_design',1994,#20);
#4=PRODUCT_CATEGORY_RELATIONSHIP('NONE','NONE',#21,#22);
#5=SHAPE_DEFINITION_REPRESENTATION(#23,#24);
#6= (GEOMETRIC_REPRESENTATION_CONTEXT(3)GLOBAL_UNCERTAINTY_ASSIGNED_CONTEXT((#27))GLOBAL_UNIT_ASSIGNED_CONTEXT((#29,#30,#31))REPRESENTATION_CONTEXT('NONE','WORKSPACE'));
#10=STYLED_ITEM('',(#33),#34);
#11=STYLED_ITEM('',(#35),#36);
#12=STYLED_ITEM('',(#37),#38);
#13=STYLED_ITEM('',(#39),#40);
#14=STYLED_ITEM('',(#41),#42);
#15=STYLED_ITEM('',(#43),#44);
#16=STYLED_ITEM('',(#45),#46);
#17=STYLED_ITEM('',(#47),#48);
#18=STYLED_ITEM('',(#49),#50);
#19=STYLED_ITEM('',(#51),#52);
#20=APPLICATION_CONTEXT(' ');
#21=PRODUCT_CATEGORY('part','NONE');
#22=PRODUCT_RELATED_PRODUCT_CATEGORY('detail',' ',(#53));
#23=PRODUCT_DEFINITION_SHAPE('NONE','NONE',#54);
#24=ADVANCED_BREP_SHAPE_REPRESENTATION('_118',(#55,#56),#6);
#27=UNCERTAINTY_MEASURE_WITH_UNIT(LENGTH_MEASURE(0.001),#29,'','');
#29= (CONVERSION_BASED_UNIT('MILLIMETRE',#59)LENGTH_UNIT()NAMED_UNIT(#62));
#30= (NAMED_UNIT(#64)PLANE_ANGLE_UNIT()SI_UNIT($,.RADIAN.));
#31= (NAMED_UNIT(#64)SOLID_ANGLE_UNIT()SI_UNIT($,.STERADIAN.));
#33=PRESENTATION_STYLE_ASSIGNMENT((#70));
#34=ADVANCED_FACE('',(#71),#72,.T.);
#35=PRESENTATION_STYLE_ASSIGNMENT((#73));
#36=ADVANCED_FACE('',(#74),#75,.T.);
#37=PRESENTATION_STYLE_ASSIGNMENT((#76));
#38=ADVANCED_FACE('',(#77),#78,.T.);
#39=PRESENTATION_STYLE_ASSIGNMENT((#79));
#40=ADVANCED_FACE('',(#80),#81,.T.);
#41=PRESENTATION_STYLE_ASSIGNMENT((#82));
#42=ADVANCED_FACE('',(#83,#84,#85),#86,.T.);
#43=PRESENTATION_STYLE_ASSIGNMENT((#87));
#44=ADVANCED_FACE('',(#88,#89,#90),#91,.F.);
#45=PRESENTATION_STYLE_ASSIGNMENT((#92));
#46=ADVANCED_FACE('',(#93,#94),#95,.F.);
#47=PRESENTATION_STYLE_ASSIGNMENT((#96));
#48=ADVANCED_FACE('',(#97,#98),#99,.F.);
#49=PRESENTATION_STYLE_ASSIGNMENT((#100));
#50=ADVANCED_FACE('',(#101,#102),#103,.T.);
#51=PRESENTATION_STYLE_ASSIGNMENT((#104));
#52=ADVANCED_FACE('',(#105,#106),#107,.T.);
#53=PRODUCT('_118','_118','PART-_118-DESC',(#108));
#54=PRODUCT_DEFINITION('NONE','NONE',#109,#2);
#55=MANIFOLD_SOLID_BREP('_118',#110);
#56=AXIS2_PLACEMENT_3D('',#111,#112,#113);
#59=LENGTH_MEASURE_WITH_UNIT(LENGTH_MEASURE(1.0),#114);
#62=DIMENSIONAL_EXPONENTS(1.0,0.0,0.0,0.0,0.0,0.0,0.0);
#64=DIMENSIONAL_EXPONENTS(0.0,0.0,0.0,0.0,0.0,0.0,0.0);
#70=SURFACE_STYLE_USAGE(.BOTH.,#115);
#71=FACE_OUTER_BOUND('',#116,.T.);
#72=PLANE('',#117);
#73=SURFACE_STYLE_USAGE(.BOTH.,#118);
#74=FACE_OUTER_BOUND('',#119,.T.);
#75=PLANE('',#120);
#76=SURFACE_STYLE_USAGE(.BOTH.,#121);
#77=FACE_OUTER_BOUND('',#122,.T.);
#78=PLANE('',#123);
#79=SURFACE_STYLE_USAGE(.BOTH.,#124);
#80=FACE_OUTER_BOUND('',#125,.T.);
#81=PLANE('',#126);
#82=SURFACE_STYLE_USAGE(.BOTH.,#127);
#83=FACE_OUTER_BOUND('',#128,.T.);
#84=FACE_OUTER_BOUND('',#129,.T.);
#85=FACE_BOUND('',#130,.T.);
#86=CYLINDRICAL_SURFACE('',#131,1.0);
#87=SURFACE_STYLE_USAGE(.BOTH.,#132);
#88=FACE_OUTER_BOUND('',#133,.T.);
#89=FACE_OUTER_BOUND('',#134,.T.);
#90=FACE_BOUND('',#135,.T.);
#91=CYLINDRICAL_SURFACE('',#136,0.75);
#92=SURFACE_STYLE_USAGE(.BOTH.,#137);
#93=FACE_OUTER_BOUND('',#138,.T.);
#94=FACE_OUTER_BOUND('',#139,.T.);
#95=CYLINDRICAL_SURFACE('',#140,0.5);
#96=SURFACE_STYLE_USAGE(.BOTH.,#141);
#97=FACE_OUTER_BOUND('',#142,.T.);
#98=FACE_BOUND('',#143,.T.);
#99=CONICAL_SURFACE('',#144,0.75,0.523598775598298);
#100=SURFACE_STYLE_USAGE(.BOTH.,#145);
#101=FACE_OUTER_BOUND('',#146,.T.);
#102=FACE_BOUND('',#147,.T.);
#103=PLANE('',#148);
#104=SURFACE_STYLE_USAGE(.BOTH.,#149);
#105=FACE_BOUND('',#150,.T.);
#106=FACE_OUTER_BOUND('',#151,.T.);
#107=PLANE('',#152);
#108=PRODUCT_CONTEXT('',#20,'mechanical');
#109=PRODUCT_DEFINITION_FORMATION_WITH_SPECIFIED_SOURCE(' ','NONE',#53,.NOT_KNOWN.);
#110=CLOSED_SHELL('',(#34,#36,#38,#42,#44,#52,#46,#50,#48,#40));
#111=CARTESIAN_POINT('',(0.0,0.0,0.0));
#112=DIRECTION('',(0.0,0.0,1.0));
#113=DIRECTION('',(1.0,0.0,0.0));
#114= (NAMED_UNIT(#62)LENGTH_UNIT()SI_UNIT(.MILLI.,.METRE.));
#115=SURFACE_SIDE_STYLE('',(#154));
#116=EDGE_LOOP('',(#155,#156,#157,#158));
#117=AXIS2_PLACEMENT_3D('',#159,#160,#161);
#118=SURFACE_SIDE_STYLE('',(#162));
#119=EDGE_LOOP('',(#163,#164,#165,#166));
#120=AXIS2_PLACEMENT_3D('',#167,#168,#169);
#121=SURFACE_SIDE_STYLE('',(#170));
#122=EDGE_LOOP('',(#171,#172,#173,#174));
#123=AXIS2_PLACEMENT_3D('',#175,#176,#177);
#124=SURFACE_SIDE_STYLE('',(#178));
#125=EDGE_LOOP('',(#179,#180,#181,#182));
#126=AXIS2_PLACEMENT_3D('',#183,#184,#185);
#127=SURFACE_SIDE_STYLE('',(#186));
#128=EDGE_LOOP('',(#187));
#129=EDGE_LOOP('',(#188));
#130=EDGE_LOOP('',(#189,#190,#191,#192));
#131=AXIS2_PLACEMENT_3D('',#193,#194,#195);
#132=SURFACE_SIDE_STYLE('',(#196));
#133=EDGE_LOOP('',(#197));
#134=EDGE_LOOP('',(#198));
#135=EDGE_LOOP('',(#199,#200,#201,#202));
#136=AXIS2_PLACEMENT_3D('',#203,#204,#205);
#137=SURFACE_SIDE_STYLE('',(#206));
#138=EDGE_LOOP('',(#207));
#139=EDGE_LOOP('',(#208));
#140=AXIS2_PLACEMENT_3D('',#209,#210,#211);
#141=SURFACE_SIDE_STYLE('',(#212));
#142=EDGE_LOOP('',(#213));
#143=EDGE_LOOP('',(#214));
#144=AXIS2_PLACEMENT_3D('',#215,#216,#217);
#145=SURFACE_SIDE_STYLE('',(#218));
#146=EDGE_LOOP('',(#219));
#147=EDGE_LOOP('',(#220));
#148=AXIS2_PLACEMENT_3D('',#221,#222,#223);
#149=SURFACE_SIDE_STYLE('',(#224));
#150=EDGE_LOOP('',(#225));
#151=EDGE_LOOP('',(#226));
#152=AXIS2_PLACEMENT_3D('',#227,#228,#229);
#154=SURFACE_STYLE_FILL_AREA(#230);
#155=ORIENTED_EDGE('',*,*,#231,.F.);
#156=ORIENTED_EDGE('',*,*,#232,.T.);
#157=ORIENTED_EDGE('',*,*,#233,.F.);
#158=ORIENTED_EDGE('',*,*,#234,.T.);
#159=CARTESIAN_POINT('',(2.7,2.5,-45.1397975745055));
#160=DIRECTION('',(-1.0,6.12323399573692E-017,0.0));
#161=DIRECTION('',(-6.12323399573692E-017,-1.0,0.0));
#162=SURFACE_STYLE_FILL_AREA(#235);
#163=ORIENTED_EDGE('',*,*,#236,.F.);
#164=ORIENTED_EDGE('',*,*,#234,.F.);
#165=ORIENTED_EDGE('',*,*,#237,.F.);
#166=ORIENTED_EDGE('',*,*,#238,.T.);
#167=CARTESIAN_POINT('',(2.7,0.5,-45.1397975745055));
#168=DIRECTION('',(1.57772181044202E-030,1.0,0.0));
#169=DIRECTION('',(-1.0,1.57772181044202E-030,0.0));
#170=SURFACE_STYLE_FILL_AREA(#239);
#171=ORIENTED_EDGE('',*,*,#240,.F.);
#172=ORIENTED_EDGE('',*,*,#241,.T.);
#173=ORIENTED_EDGE('',*,*,#242,.F.);
#174=ORIENTED_EDGE('',*,*,#232,.F.);
#175=CARTESIAN_POINT('',(2.7,0.5,-45.1397975745055));
#176=DIRECTION('',(1.57772181044202E-030,1.0,0.0));
#177=DIRECTION('',(-1.0,1.57772181044202E-030,0.0));
#178=SURFACE_STYLE_FILL_AREA(#243);
#179=ORIENTED_EDGE('',*,*,#244,.F.);
#180=ORIENTED_EDGE('',*,*,#238,.F.);
#181=ORIENTED_EDGE('',*,*,#245,.F.);
#182=ORIENTED_EDGE('',*,*,#241,.F.);
#183=CARTESIAN_POINT('',(2.4,0.5,-45.1397975745055));
#184=DIRECTION('',(1.0,-6.12323399573692E-017,0.0));
#185=DIRECTION('',(6.12323399573692E-017,1.0,0.0));
#186=SURFACE_STYLE_FILL_AREA(#246);
#187=ORIENTED_EDGE('',*,*,#247,.T.);
#188=ORIENTED_EDGE('',*,*,#248,.F.);
#189=ORIENTED_EDGE('',*,*,#240,.T.);
#190=ORIENTED_EDGE('',*,*,#231,.T.);
#191=ORIENTED_EDGE('',*,*,#236,.T.);
#192=ORIENTED_EDGE('',*,*,#244,.T.);
#193=CARTESIAN_POINT('',(0.0,0.0,0.0));
#194=DIRECTION('',(-1.0,0.0,0.0));
#195=DIRECTION('',(0.0,0.0,1.0));
#196=SURFACE_STYLE_FILL_AREA(#249);
#197=ORIENTED_EDGE('',*,*,#250,.T.);
#198=ORIENTED_EDGE('',*,*,#251,.F.);
#199=ORIENTED_EDGE('',*,*,#237,.T.);
#200=ORIENTED_EDGE('',*,*,#233,.T.);
#201=ORIENTED_EDGE('',*,*,#242,.T.);
#202=ORIENTED_EDGE('',*,*,#245,.T.);
#203=CARTESIAN_POINT('',(0.0,0.0,0.0));
#204=DIRECTION('',(-1.0,0.0,0.0));
#205=DIRECTION('',(0.0,0.0,1.0));
#206=SURFACE_STYLE_FILL_AREA(#252);
#207=ORIENTED_EDGE('',*,*,#253,.T.);
#208=ORIENTED_EDGE('',*,*,#254,.F.);
#209=CARTESIAN_POINT('',(0.0,0.0,0.0));
#210=DIRECTION('',(-1.0,0.0,0.0));
#211=DIRECTION('',(0.0,0.0,1.0));
#212=SURFACE_STYLE_FILL_AREA(#255);
#213=ORIENTED_EDGE('',*,*,#248,.T.);
#214=ORIENTED_EDGE('',*,*,#250,.F.);
#215=CARTESIAN_POINT('',(0.433012701892222,0.0,0.0));
#216=DIRECTION('',(-1.0,0.0,-0.0));
#217=DIRECTION('',(0.0,0.0,1.0));
#218=SURFACE_STYLE_FILL_AREA(#256);
#219=ORIENTED_EDGE('',*,*,#251,.T.);
#220=ORIENTED_EDGE('',*,*,#253,.F.);
#221=CARTESIAN_POINT('',(6.0,0.5,0.0));
#222=DIRECTION('',(-1.0,0.0,0.0));
#223=DIRECTION('',(0.0,0.0,1.0));
#224=SURFACE_STYLE_FILL_AREA(#257);
#225=ORIENTED_EDGE('',*,*,#254,.T.);
#226=ORIENTED_EDGE('',*,*,#247,.F.);
#227=CARTESIAN_POINT('',(80.0,1.0,0.0));
#228=DIRECTION('',(1.0,0.0,0.0));
#229=DIRECTION('',(0.0,0.0,-1.0));
#230=FILL_AREA_STYLE('',(#258));
#231=EDGE_CURVE('',#259,#260,#261,.F.);
#232=EDGE_CURVE('',#259,#262,#263,.T.);
#233=EDGE_CURVE('',#264,#262,#265,.T.);
#234=EDGE_CURVE('',#264,#260,#266,.T.);
#235=FILL_AREA_STYLE('',(#267));
#236=EDGE_CURVE('',#260,#268,#269,.T.);
#237=EDGE_CURVE('',#270,#264,#271,.F.);
#238=EDGE_CURVE('',#270,#268,#272,.T.);
#239=FILL_AREA_STYLE('',(#273));
#240=EDGE_CURVE('',#274,#259,#275,.F.);
#241=EDGE_CURVE('',#274,#276,#277,.T.);
#242=EDGE_CURVE('',#262,#276,#278,.T.);
#243=FILL_AREA_STYLE('',(#279));
#244=EDGE_CURVE('',#268,#274,#280,.F.);
#245=EDGE_CURVE('',#276,#270,#281,.T.);
#246=FILL_AREA_STYLE('',(#282));
#247=EDGE_CURVE('',#283,#283,#284,.T.);
#248=EDGE_CURVE('',#285,#285,#286,.T.);
#249=FILL_AREA_STYLE('',(#287));
#250=EDGE_CURVE('',#288,#288,#289,.T.);
#251=EDGE_CURVE('',#290,#290,#291,.T.);
#252=FILL_AREA_STYLE('',(#292));
#253=EDGE_CURVE('',#293,#293,#294,.T.);
#254=EDGE_CURVE('',#295,#295,#296,.T.);
#255=FILL_AREA_STYLE('',(#297));
#256=FILL_AREA_STYLE('',(#298));
#257=FILL_AREA_STYLE('',(#299));
#258=FILL_AREA_STYLE_COLOUR('',#300);
#259=VERTEX_POINT('',#301);
#260=VERTEX_POINT('',#302);
#261=CIRCLE('',#303,1.0);
#262=VERTEX_POINT('',#304);
#263=LINE('',#305,#306);
#264=VERTEX_POINT('',#307);
#265=CIRCLE('',#308,0.75);
#266=LINE('',#309,#310);
#267=FILL_AREA_STYLE_COLOUR('',#311);
#268=VERTEX_POINT('',#312);
#269=LINE('',#313,#314);
#270=VERTEX_POINT('',#315);
#271=LINE('',#316,#317);
#272=LINE('',#318,#319);
#273=FILL_AREA_STYLE_COLOUR('',#320);
#274=VERTEX_POINT('',#321);
#275=LINE('',#322,#323);
#276=VERTEX_POINT('',#324);
#277=LINE('',#325,#326);
#278=LINE('',#327,#328);
#279=FILL_AREA_STYLE_COLOUR('',#329);
#280=CIRCLE('',#330,1.0);
#281=CIRCLE('',#331,0.75);
#282=FILL_AREA_STYLE_COLOUR('',#332);
#283=VERTEX_POINT('',#333);
#284=CIRCLE('',#334,1.0);
#285=VERTEX_POINT('',#335);
#286=CIRCLE('',#336,1.0);
#287=FILL_AREA_STYLE_COLOUR('',#337);
#288=VERTEX_POINT('',#338);
#289=CIRCLE('',#339,0.75);
#290=VERTEX_POINT('',#340);
#291=CIRCLE('',#341,0.75);
#292=FILL_AREA_STYLE_COLOUR('',#342);
#293=VERTEX_POINT('',#343);
#294=CIRCLE('',#344,0.5);
#295=VERTEX_POINT('',#345);
#296=CIRCLE('',#346,0.5);
#297=FILL_AREA_STYLE_COLOUR('',#347);
#298=FILL_AREA_STYLE_COLOUR('',#348);
#299=FILL_AREA_STYLE_COLOUR('',#349);
#300=COLOUR_RGB('',1.0,1.0,1.0);
#301=CARTESIAN_POINT('',(2.7,0.5,-0.866025403784436));
#302=CARTESIAN_POINT('',(2.7,0.5,0.866025403784436));
#303=AXIS2_PLACEMENT_3D('',#350,#351,#352);
#304=CARTESIAN_POINT('',(2.7,0.5,-0.559016994374946));
#305=CARTESIAN_POINT('',(2.7,0.5,-45.1397975745055));
#306=VECTOR('',#353,1.0);
#307=CARTESIAN_POINT('',(2.7,0.5,0.559016994374946));
#308=AXIS2_PLACEMENT_3D('',#354,#355,#356);
#309=CARTESIAN_POINT('',(2.7,0.5,-45.1397975745055));
#310=VECTOR('',#357,1.0);
#311=COLOUR_RGB('',1.0,1.0,1.0);
#312=CARTESIAN_POINT('',(2.4,0.5,0.866025403784439));
#313=CARTESIAN_POINT('',(7.88860905221012E-031,0.5,0.866025403784439));
#314=VECTOR('',#358,1.0);
#315=CARTESIAN_POINT('',(2.4,0.5,0.559016994374948));
#316=CARTESIAN_POINT('',(7.88860905221012E-031,0.5,0.559016994374948));
#317=VECTOR('',#359,1.0);
#318=CARTESIAN_POINT('',(2.4,0.5,-45.1397975745055));
#319=VECTOR('',#360,1.0);
#320=COLOUR_RGB('',1.0,1.0,1.0);
#321=CARTESIAN_POINT('',(2.4,0.5,-0.866025403784439));
#322=CARTESIAN_POINT('',(7.88860905221012E-031,0.5,-0.866025403784439));
#323=VECTOR('',#361,1.0);
#324=CARTESIAN_POINT('',(2.4,0.5,-0.559016994374948));
#325=CARTESIAN_POINT('',(2.4,0.5,-45.1397975745055));
#326=VECTOR('',#362,1.0);
#327=CARTESIAN_POINT('',(7.88860905221012E-031,0.5,-0.559016994374948));
#328=VECTOR('',#363,1.0);
#329=COLOUR_RGB('',1.0,1.0,1.0);
#330=AXIS2_PLACEMENT_3D('',#364,#365,#366);
#331=AXIS2_PLACEMENT_3D('',#367,#368,#369);
#332=COLOUR_RGB('',1.0,1.0,1.0);
#333=CARTESIAN_POINT('',(80.0,0.0,1.0));
#334=AXIS2_PLACEMENT_3D('',#370,#371,#372);
#335=CARTESIAN_POINT('',(0.0,0.0,1.0));
#336=AXIS2_PLACEMENT_3D('',#373,#374,#375);
#337=COLOUR_RGB('',1.0,1.0,1.0);
#338=CARTESIAN_POINT('',(0.433012701892222,0.0,0.75));
#339=AXIS2_PLACEMENT_3D('',#376,#377,#378);
#340=CARTESIAN_POINT('',(6.0,0.0,0.75));
#341=AXIS2_PLACEMENT_3D('',#379,#380,#381);
#342=COLOUR_RGB('',1.0,1.0,1.0);
#343=CARTESIAN_POINT('',(6.0,0.0,0.5));
#344=AXIS2_PLACEMENT_3D('',#382,#383,#384);
#345=CARTESIAN_POINT('',(80.0,0.0,0.5));
#346=AXIS2_PLACEMENT_3D('',#385,#386,#387);
#347=COLOUR_RGB('',1.0,1.0,1.0);
#348=COLOUR_RGB('',1.0,1.0,1.0);
#349=COLOUR_RGB('',1.0,1.0,1.0);
#350=CARTESIAN_POINT('',(2.7,0.0,0.0));
#351=DIRECTION('',(-1.0,6.12323399573692E-017,0.0));
#352=DIRECTION('',(-6.12323399573692E-017,-1.0,0.0));
#353=DIRECTION('',(0.0,0.0,1.0));
#354=CARTESIAN_POINT('',(2.7,0.0,0.0));
#355=DIRECTION('',(-1.0,6.12323399573692E-017,0.0));
#356=DIRECTION('',(-6.12323399573692E-017,-1.0,0.0));
#357=DIRECTION('',(0.0,0.0,1.0));
#358=DIRECTION('',(-1.0,0.0,0.0));
#359=DIRECTION('',(-1.0,0.0,0.0));
#360=DIRECTION('',(0.0,0.0,1.0));
#361=DIRECTION('',(-1.0,0.0,0.0));
#362=DIRECTION('',(0.0,0.0,1.0));
#363=DIRECTION('',(-1.0,0.0,0.0));
#364=CARTESIAN_POINT('',(2.4,0.0,0.0));
#365=DIRECTION('',(1.0,-6.12323399573692E-017,0.0));
#366=DIRECTION('',(6.12323399573692E-017,1.0,0.0));
#367=CARTESIAN_POINT('',(2.4,0.0,0.0));
#368=DIRECTION('',(1.0,-6.12323399573692E-017,0.0));
#369=DIRECTION('',(6.12323399573692E-017,1.0,0.0));
#370=CARTESIAN_POINT('',(80.0,0.0,0.0));
#371=DIRECTION('',(-1.0,0.0,0.0));
#372=DIRECTION('',(0.0,0.0,1.0));
#373=CARTESIAN_POINT('',(0.0,0.0,0.0));
#374=DIRECTION('',(-1.0,0.0,0.0));
#375=DIRECTION('',(0.0,0.0,1.0));
#376=CARTESIAN_POINT('',(0.433012701892222,0.0,0.0));
#377=DIRECTION('',(-1.0,0.0,0.0));
#378=DIRECTION('',(0.0,0.0,1.0));
#379=CARTESIAN_POINT('',(6.0,0.0,0.0));
#380=DIRECTION('',(-1.0,0.0,0.0));
#381=DIRECTION('',(0.0,0.0,1.0));
#382=CARTESIAN_POINT('',(6.0,0.0,0.0));
#383=DIRECTION('',(-1.0,0.0,0.0));
#384=DIRECTION('',(0.0,0.0,1.0));
#385=CARTESIAN_POINT('',(80.0,0.0,0.0));
#386=DIRECTION('',(-1.0,0.0,0.0));
#387=DIRECTION('',(0.0,0.0,1.0));
#388=PRESENTATION_LAYER_ASSIGNMENT('1','',(#55));
ENDSEC;
END-ISO-10303-21;
