ISO-10303-21;
HEADER;
FILE_DESCRIPTION (( 'STEP AP203' ),
    '1' );
FILE_NAME ('AXE DE ROUE PT2.STEP',
    '2020-09-14T01:15:01',
    ( '' ),
    ( '' ),
    'SwSTEP 2.0',
    'SolidWorks 2019',
    '' );
FILE_SCHEMA (( 'CONFIG_CONTROL_DESIGN' ));
ENDSEC;

DATA;
#1 = ADVANCED_FACE ( 'NONE', ( #5, #88 ), #134, .T. ) ;
#2 = AXIS2_PLACEMENT_3D ( 'NONE', #268, #105, #234 ) ;
#3 = CIRCLE ( 'NONE', #70, 8.500000000000000000 ) ;
#4 = EDGE_LOOP ( 'NONE', ( #13 ) ) ;
#5 = FACE_OUTER_BOUND ( 'NONE', #46, .T. ) ;
#6 = APPROVAL_ROLE ( '' ) ;
#7 = VERTEX_POINT ( 'NONE', #114 ) ;
#8 = CIRCLE ( 'NONE', #144, 12.50000000000000000 ) ;
#9 = FACE_OUTER_BOUND ( 'NONE', #203, .T. ) ;
#10 = VERTEX_POINT ( 'NONE', #27 ) ;
#11 = CARTESIAN_POINT ( 'NONE',  ( 0.0000000000000000000, 65.00000000000000000, 0.0000000000000000000 ) ) ;
#12 = ADVANCED_FACE ( 'NONE', ( #171, #215 ), #15, .F. ) ;
#13 = ORIENTED_EDGE ( 'NONE', *, *, #20, .F. ) ;
#14 = SECURITY_CLASSIFICATION_LEVEL ( 'unclassified' ) ;
#15 = CONICAL_SURFACE ( 'NONE', #169, 7.000000000000000000, 0.7853981633974428389 ) ;
#16 = ORIENTED_EDGE ( 'NONE', *, *, #260, .F. ) ;
#17 = PERSON_AND_ORGANIZATION ( #63, #239 ) ;
#18 = PERSON_AND_ORGANIZATION_ROLE ( 'design_supplier' ) ;
#19 = CLOSED_SHELL ( 'NONE', ( #216, #89, #237, #127, #107, #1, #69, #253, #12 ) ) ;
#20 = EDGE_CURVE ( 'NONE', #152, #152, #52, .T. ) ;
#21 = CARTESIAN_POINT ( 'NONE',  ( 0.0000000000000000000, 65.00000000000000000, 0.0000000000000000000 ) ) ;
#22 = FACE_OUTER_BOUND ( 'NONE', #160, .T. ) ;
#23 = PRODUCT ( 'AXE DE ROUE PT2', 'AXE DE ROUE PT2', '', ( #37 ) ) ;
#24 = CARTESIAN_POINT ( 'NONE',  ( 0.0000000000000000000, 25.99999999999996092, 0.0000000000000000000 ) ) ;
#25 = TOROIDAL_SURFACE ( 'NONE', #65, 12.00000000000000000, 0.5000000000000000000 ) ;
#26 = DIRECTION ( 'NONE',  ( 0.0000000000000000000, 0.0000000000000000000, 1.000000000000000000 ) ) ;
#27 = CARTESIAN_POINT ( 'NONE',  ( 0.0000000000000000000, 0.0000000000000000000, 12.50000000000000000 ) ) ;
#28 = DIRECTION ( 'NONE',  ( -0.0000000000000000000, -1.000000000000000000, -0.0000000000000000000 ) ) ;
#29 = CARTESIAN_POINT ( 'NONE',  ( 0.0000000000000000000, 27.49999999999997513, 8.500000000000000000 ) ) ;
#30 = CC_DESIGN_SECURITY_CLASSIFICATION ( #80, ( #213 ) ) ;
#31 = DIRECTION ( 'NONE',  ( 0.0000000000000000000, -0.0000000000000000000, 1.000000000000000000 ) ) ;
#32 = PERSON_AND_ORGANIZATION ( #63, #239 ) ;
#33 = ORIENTED_EDGE ( 'NONE', *, *, #147, .T. ) ;
#34 = DIRECTION ( 'NONE',  ( 0.0000000000000000000, -1.000000000000000000, 0.0000000000000000000 ) ) ;
#35 = PERSON_AND_ORGANIZATION ( #63, #239 ) ;
#36 = EDGE_LOOP ( 'NONE', ( #184 ) ) ;
#37 = MECHANICAL_CONTEXT ( 'NONE', #231, 'mechanical' ) ;
#38 = APPROVAL_DATE_TIME ( #246, #81 ) ;
#39 = AXIS2_PLACEMENT_3D ( 'NONE', #133, #34, #221 ) ;
#40 = ADVANCED_BREP_SHAPE_REPRESENTATION ( 'AXE DE ROUE PT2', ( #187, #41 ), #159 ) ;
#41 = AXIS2_PLACEMENT_3D ( 'NONE', #56, #264, #164 ) ;
#42 = EDGE_CURVE ( 'NONE', #131, #131, #75, .T. ) ;
#43 = DIRECTION ( 'NONE',  ( 0.0000000000000000000, 0.0000000000000000000, 1.000000000000000000 ) ) ;
#44 = DIRECTION ( 'NONE',  ( 0.0000000000000000000, -1.000000000000000000, 0.0000000000000000000 ) ) ;
#45 = AXIS2_PLACEMENT_3D ( 'NONE', #86, #28, #242 ) ;
#46 = EDGE_LOOP ( 'NONE', ( #55 ) ) ;
#47 = ORIENTED_EDGE ( 'NONE', *, *, #119, .F. ) ;
#48 = CIRCLE ( 'NONE', #172, 8.500000000000000000 ) ;
#49 = CARTESIAN_POINT ( 'NONE',  ( 0.0000000000000000000, -2.000000000000001776, -7.000000000000000000 ) ) ;
#50 = VERTEX_POINT ( 'NONE', #219 ) ;
#51 = DIRECTION ( 'NONE',  ( 0.0000000000000000000, 0.0000000000000000000, -1.000000000000000000 ) ) ;
#52 = CIRCLE ( 'NONE', #255, 7.000000000000000000 ) ;
#53 = PLANE ( 'NONE',  #39 ) ;
#54 = CALENDAR_DATE ( 2020, 14, 9 ) ;
#55 = ORIENTED_EDGE ( 'NONE', *, *, #260, .T. ) ;
#56 = CARTESIAN_POINT ( 'NONE',  ( 0.0000000000000000000, 0.0000000000000000000, 0.0000000000000000000 ) ) ;
#57 = APPROVAL_ROLE ( '' ) ;
#58 = EDGE_LOOP ( 'NONE', ( #67 ) ) ;
#59 = CALENDAR_DATE ( 2020, 14, 9 ) ;
#60 = CC_DESIGN_APPROVAL ( #81, ( #103 ) ) ;
#61 = CC_DESIGN_DATE_AND_TIME_ASSIGNMENT ( #265, #79, ( #80 ) ) ;
#62 = CC_DESIGN_PERSON_AND_ORGANIZATION_ASSIGNMENT ( #118, #205, ( #213 ) ) ;
#63 = PERSON ( 'UNSPECIFIED', 'UNSPECIFIED', 'UNSPECIFIED', ('UNSPECIFIED'), ('UNSPECIFIED'), ('UNSPECIFIED') ) ;
#64 = DIRECTION ( 'NONE',  ( 0.0000000000000000000, 0.0000000000000000000, -1.000000000000000000 ) ) ;
#65 = AXIS2_PLACEMENT_3D ( 'NONE', #192, #248, #43 ) ;
#66 = DIRECTION ( 'NONE',  ( 0.0000000000000000000, -1.000000000000000000, 0.0000000000000000000 ) ) ;
#67 = ORIENTED_EDGE ( 'NONE', *, *, #20, .T. ) ;
#68 = ORIENTED_EDGE ( 'NONE', *, *, #209, .T. ) ;
#69 = ADVANCED_FACE ( 'NONE', ( #110, #196 ), #90, .F. ) ;
#70 = AXIS2_PLACEMENT_3D ( 'NONE', #115, #74, #202 ) ;
#71 = DIRECTION ( 'NONE',  ( -0.0000000000000000000, -1.000000000000000000, -0.0000000000000000000 ) ) ;
#72 = CARTESIAN_POINT ( 'NONE',  ( 0.0000000000000000000, 64.50000000000000000, 12.50000000000000000 ) ) ;
#73 = CARTESIAN_POINT ( 'NONE',  ( 0.0000000000000000000, 25.99999999999996092, 0.0000000000000000000 ) ) ;
#74 = DIRECTION ( 'NONE',  ( -0.0000000000000000000, -1.000000000000000000, -0.0000000000000000000 ) ) ;
#75 = CIRCLE ( 'NONE', #142, 12.00000000000000000 ) ;
#76 = EDGE_LOOP ( 'NONE', ( #84 ) ) ;
#77 = APPROVAL_STATUS ( 'not_yet_approved' ) ;
#78 = ORIENTED_EDGE ( 'NONE', *, *, #209, .F. ) ;
#79 = DATE_TIME_ROLE ( 'classification_date' ) ;
#80 = SECURITY_CLASSIFICATION ( '', '', #14 ) ;
#81 = APPROVAL ( #185, 'UNSPECIFIED' ) ;
#82 = DIRECTION ( 'NONE',  ( 0.0000000000000000000, 0.0000000000000000000, 1.000000000000000000 ) ) ;
#83 = DIRECTION ( 'NONE',  ( -0.0000000000000000000, -1.000000000000000000, -0.0000000000000000000 ) ) ;
#84 = ORIENTED_EDGE ( 'NONE', *, *, #42, .F. ) ;
#85 = PRODUCT_RELATED_PRODUCT_CATEGORY ( 'detail', '', ( #23 ) ) ;
#86 = CARTESIAN_POINT ( 'NONE',  ( 0.0000000000000000000, 65.00000000000000000, 0.0000000000000000000 ) ) ;
#87 = AXIS2_PLACEMENT_3D ( 'NONE', #21, #71, #240 ) ;
#88 = FACE_BOUND ( 'NONE', #163, .T. ) ;
#89 = ADVANCED_FACE ( 'NONE', ( #155, #241 ), #199, .T. ) ;
#90 = CYLINDRICAL_SURFACE ( 'NONE', #45, 7.000000000000000000 ) ;
#91 = CC_DESIGN_PERSON_AND_ORGANIZATION_ASSIGNMENT ( #183, #226, ( #80 ) ) ;
#92 = CALENDAR_DATE ( 2020, 14, 9 ) ;
#93 = VERTEX_POINT ( 'NONE', #176 ) ;
#94 = DIRECTION ( 'NONE',  ( 0.0000000000000000000, -1.000000000000000000, 0.0000000000000000000 ) ) ;
#95 = DIRECTION ( 'NONE',  ( 0.0000000000000000000, 0.0000000000000000000, -1.000000000000000000 ) ) ;
#96 = DIRECTION ( 'NONE',  ( 0.0000000000000000000, 1.000000000000000000, 0.0000000000000000000 ) ) ;
#97 = ORIENTED_EDGE ( 'NONE', *, *, #230, .F. ) ;
#98 = APPROVAL_ROLE ( '' ) ;
#99 = PERSON_AND_ORGANIZATION ( #63, #239 ) ;
#100 = EDGE_LOOP ( 'NONE', ( #78 ) ) ;
#101 =( NAMED_UNIT ( * ) PLANE_ANGLE_UNIT ( ) SI_UNIT ( $, .RADIAN. ) );
#102 = COORDINATED_UNIVERSAL_TIME_OFFSET ( 1, 0, .AHEAD. ) ;
#103 = PRODUCT_DEFINITION ( 'UNKNOWN', '', #213, #173 ) ;
#104 = FACE_OUTER_BOUND ( 'NONE', #76, .T. ) ;
#105 = DIRECTION ( 'NONE',  ( -0.0000000000000000000, -1.000000000000000000, -0.0000000000000000000 ) ) ;
#106 = CIRCLE ( 'NONE', #220, 18.49999999999997513 ) ;
#107 = ADVANCED_FACE ( 'NONE', ( #224, #9 ), #180, .F. ) ;
#108 = EDGE_LOOP ( 'NONE', ( #141 ) ) ;
#109 = AXIS2_PLACEMENT_3D ( 'NONE', #170, #191, #82 ) ;
#110 = FACE_OUTER_BOUND ( 'NONE', #193, .T. ) ;
#111 = CARTESIAN_POINT ( 'NONE',  ( 0.0000000000000000000, -2.000000000000000000, -18.49999999999997513 ) ) ;
#112 = DIRECTION ( 'NONE',  ( 0.0000000000000000000, 1.000000000000000000, 0.0000000000000000000 ) ) ;
#113 = APPROVAL_PERSON_ORGANIZATION ( #32, #154, #6 ) ;
#114 = CARTESIAN_POINT ( 'NONE',  ( 0.0000000000000000000, 65.00000000000000000, -8.500000000000000000 ) ) ;
#115 = CARTESIAN_POINT ( 'NONE',  ( 0.0000000000000000000, 27.49999999999997513, 0.0000000000000000000 ) ) ;
#116 = COORDINATED_UNIVERSAL_TIME_OFFSET ( 1, 0, .AHEAD. ) ;
#117 = EDGE_LOOP ( 'NONE', ( #181 ) ) ;
#118 = PERSON_AND_ORGANIZATION ( #63, #239 ) ;
#119 = EDGE_CURVE ( 'NONE', #50, #50, #124, .T. ) ;
#120 = ORIENTED_EDGE ( 'NONE', *, *, #230, .T. ) ;
#121 = PERSON_AND_ORGANIZATION ( #63, #239 ) ;
#122 = APPROVAL_DATE_TIME ( #175, #154 ) ;
#123 = LOCAL_TIME ( 3, 15, 1.000000000000000000, #182 ) ;
#124 = CIRCLE ( 'NONE', #151, 7.000000000000000000 ) ;
#125 = PRODUCT_DEFINITION_SHAPE ( 'NONE', 'NONE',  #103 ) ;
#126 = FACE_OUTER_BOUND ( 'NONE', #263, .T. ) ;
#127 = ADVANCED_FACE ( 'NONE', ( #177, #259 ), #53, .T. ) ;
#128 = DIRECTION ( 'NONE',  ( 0.0000000000000000000, 0.0000000000000000000, 1.000000000000000000 ) ) ;
#129 = CARTESIAN_POINT ( 'NONE',  ( 0.0000000000000000000, 65.00000000000000000, 0.0000000000000000000 ) ) ;
#130 = CIRCLE ( 'NONE', #210, 20.50000000000000000 ) ;
#131 = VERTEX_POINT ( 'NONE', #132 ) ;
#132 = CARTESIAN_POINT ( 'NONE',  ( 0.0000000000000000000, 65.00000000000000000, 12.00000000000000000 ) ) ;
#133 = CARTESIAN_POINT ( 'NONE',  ( 0.0000000000000000000, -2.000000000000000000, 0.0000000000000000000 ) ) ;
#134 = CONICAL_SURFACE ( 'NONE', #232, 18.49999999999997513, 0.7853981633974473908 ) ;
#135 = EDGE_LOOP ( 'NONE', ( #68 ) ) ;
#136 = DIRECTION ( 'NONE',  ( 0.0000000000000000000, -0.0000000000000000000, -1.000000000000000000 ) ) ;
#137 = CC_DESIGN_PERSON_AND_ORGANIZATION_ASSIGNMENT ( #35, #244, ( #103 ) ) ;
#138 = DATE_TIME_ROLE ( 'creation_date' ) ;
#139 = ORIENTED_EDGE ( 'NONE', *, *, #42, .T. ) ;
#140 = COORDINATED_UNIVERSAL_TIME_OFFSET ( 1, 0, .AHEAD. ) ;
#141 = ORIENTED_EDGE ( 'NONE', *, *, #157, .T. ) ;
#142 = AXIS2_PLACEMENT_3D ( 'NONE', #129, #217, #26 ) ;
#143 = CC_DESIGN_PERSON_AND_ORGANIZATION_ASSIGNMENT ( #121, #18, ( #213 ) ) ;
#144 = AXIS2_PLACEMENT_3D ( 'NONE', #146, #83, #212 ) ;
#145 = FACE_OUTER_BOUND ( 'NONE', #36, .T. ) ;
#146 = CARTESIAN_POINT ( 'NONE',  ( 0.0000000000000000000, 64.50000000000000000, 0.0000000000000000000 ) ) ;
#147 = EDGE_CURVE ( 'NONE', #179, #179, #3, .T. ) ;
#148 = CC_DESIGN_APPROVAL ( #154, ( #80 ) ) ;
#149 = DIRECTION ( 'NONE',  ( 0.0000000000000000000, 1.000000000000000000, 0.0000000000000000000 ) ) ;
#150 = CARTESIAN_POINT ( 'NONE',  ( 0.0000000000000000000, -2.000000000000001776, 0.0000000000000000000 ) ) ;
#151 = AXIS2_PLACEMENT_3D ( 'NONE', #73, #96, #51 ) ;
#152 = VERTEX_POINT ( 'NONE', #49 ) ;
#153 =( LENGTH_UNIT ( ) NAMED_UNIT ( * ) SI_UNIT ( .MILLI., .METRE. ) );
#154 = APPROVAL ( #222, 'UNSPECIFIED' ) ;
#155 = FACE_BOUND ( 'NONE', #108, .T. ) ;
#156 = APPLICATION_CONTEXT ( 'configuration controlled 3d designs of mechanical parts and assemblies' ) ;
#157 = EDGE_CURVE ( 'NONE', #7, #7, #48, .T. ) ;
#158 = CARTESIAN_POINT ( 'NONE',  ( 0.0000000000000000000, 65.00000000000000000, 0.0000000000000000000 ) ) ;
#159 =( GEOMETRIC_REPRESENTATION_CONTEXT ( 3 ) GLOBAL_UNCERTAINTY_ASSIGNED_CONTEXT ( ( #214 ) ) GLOBAL_UNIT_ASSIGNED_CONTEXT ( ( #153, #101, #161 ) ) REPRESENTATION_CONTEXT ( 'NONE', 'WORKASPACE' ) );
#160 = EDGE_LOOP ( 'NONE', ( #33 ) ) ;
#161 =( NAMED_UNIT ( * ) SI_UNIT ( $, .STERADIAN. ) SOLID_ANGLE_UNIT ( ) );
#162 = DATE_AND_TIME ( #59, #269 ) ;
#163 = EDGE_LOOP ( 'NONE', ( #97 ) ) ;
#164 = DIRECTION ( 'NONE',  ( 1.000000000000000000, 0.0000000000000000000, 0.0000000000000000000 ) ) ;
#165 = COORDINATED_UNIVERSAL_TIME_OFFSET ( 1, 0, .AHEAD. ) ;
#166 = LOCAL_TIME ( 3, 15, 1.000000000000000000, #165 ) ;
#167 = CARTESIAN_POINT ( 'NONE',  ( 0.0000000000000000000, -2.000000000000000000, 0.0000000000000000000 ) ) ;
#168 = APPROVAL ( #77, 'UNSPECIFIED' ) ;
#169 = AXIS2_PLACEMENT_3D ( 'NONE', #24, #174, #254 ) ;
#170 = CARTESIAN_POINT ( 'NONE',  ( 0.0000000000000000000, 0.0000000000000000000, 0.0000000000000000000 ) ) ;
#171 = FACE_OUTER_BOUND ( 'NONE', #227, .T. ) ;
#172 = AXIS2_PLACEMENT_3D ( 'NONE', #11, #44, #64 ) ;
#173 = DESIGN_CONTEXT ( 'detailed design', #156, 'design' ) ;
#174 = DIRECTION ( 'NONE',  ( 0.0000000000000000000, 1.000000000000000000, 0.0000000000000000000 ) ) ;
#175 = DATE_AND_TIME ( #92, #266 ) ;
#176 = CARTESIAN_POINT ( 'NONE',  ( 0.0000000000000000000, 0.0000000000000000000, -20.50000000000000000 ) ) ;
#177 = FACE_BOUND ( 'NONE', #4, .T. ) ;
#178 = CC_DESIGN_DATE_AND_TIME_ASSIGNMENT ( #162, #138, ( #103 ) ) ;
#179 = VERTEX_POINT ( 'NONE', #29 ) ;
#180 = PLANE ( 'NONE',  #195 ) ;
#181 = ORIENTED_EDGE ( 'NONE', *, *, #200, .F. ) ;
#182 = COORDINATED_UNIVERSAL_TIME_OFFSET ( 1, 0, .AHEAD. ) ;
#183 = PERSON_AND_ORGANIZATION ( #63, #239 ) ;
#184 = ORIENTED_EDGE ( 'NONE', *, *, #200, .T. ) ;
#185 = APPROVAL_STATUS ( 'not_yet_approved' ) ;
#186 = CALENDAR_DATE ( 2020, 14, 9 ) ;
#187 = MANIFOLD_SOLID_BREP ( 'Chamfer10', #19 ) ;
#188 = APPROVAL_PERSON_ORGANIZATION ( #17, #81, #98 ) ;
#189 = CC_DESIGN_PERSON_AND_ORGANIZATION_ASSIGNMENT ( #207, #225, ( #23 ) ) ;
#190 = FACE_OUTER_BOUND ( 'NONE', #135, .T. ) ;
#191 = DIRECTION ( 'NONE',  ( 0.0000000000000000000, 1.000000000000000000, 0.0000000000000000000 ) ) ;
#192 = CARTESIAN_POINT ( 'NONE',  ( 0.0000000000000000000, 64.50000000000000000, 0.0000000000000000000 ) ) ;
#193 = EDGE_LOOP ( 'NONE', ( #223 ) ) ;
#194 = CARTESIAN_POINT ( 'NONE',  ( 0.0000000000000000000, -2.000000000000000000, 0.0000000000000000000 ) ) ;
#195 = AXIS2_PLACEMENT_3D ( 'NONE', #256, #94, #136 ) ;
#196 = FACE_OUTER_BOUND ( 'NONE', #58, .T. ) ;
#197 = CARTESIAN_POINT ( 'NONE',  ( 0.0000000000000000000, 0.0000000000000000000, 0.0000000000000000000 ) ) ;
#198 = CC_DESIGN_APPROVAL ( #168, ( #213 ) ) ;
#199 = PLANE ( 'NONE',  #249 ) ;
#200 = EDGE_CURVE ( 'NONE', #10, #10, #251, .T. ) ;
#201 = DIRECTION ( 'NONE',  ( 0.0000000000000000000, -1.000000000000000000, 0.0000000000000000000 ) ) ;
#202 = DIRECTION ( 'NONE',  ( 0.0000000000000000000, 0.0000000000000000000, 1.000000000000000000 ) ) ;
#203 = EDGE_LOOP ( 'NONE', ( #16 ) ) ;
#204 = APPLICATION_PROTOCOL_DEFINITION ( 'international standard', 'config_control_design', 1994, #156 ) ;
#205 = PERSON_AND_ORGANIZATION_ROLE ( 'creator' ) ;
#206 = EDGE_LOOP ( 'NONE', ( #120 ) ) ;
#207 = PERSON_AND_ORGANIZATION ( #63, #239 ) ;
#208 = DATE_AND_TIME ( #186, #166 ) ;
#209 = EDGE_CURVE ( 'NONE', #218, #218, #8, .T. ) ;
#210 = AXIS2_PLACEMENT_3D ( 'NONE', #197, #201, #95 ) ;
#211 = CYLINDRICAL_SURFACE ( 'NONE', #87, 8.500000000000000000 ) ;
#212 = DIRECTION ( 'NONE',  ( 0.0000000000000000000, 0.0000000000000000000, 1.000000000000000000 ) ) ;
#213 = PRODUCT_DEFINITION_FORMATION_WITH_SPECIFIED_SOURCE ( 'ANY', '', #23, .NOT_KNOWN. ) ;
#214 = UNCERTAINTY_MEASURE_WITH_UNIT (LENGTH_MEASURE( 1.000000000000000082E-05 ), #153, 'distance_accuracy_value', 'NONE');
#215 = FACE_BOUND ( 'NONE', #261, .T. ) ;
#216 = ADVANCED_FACE ( 'NONE', ( #190, #145 ), #250, .T. ) ;
#217 = DIRECTION ( 'NONE',  ( 0.0000000000000000000, 1.000000000000000000, 0.0000000000000000000 ) ) ;
#218 = VERTEX_POINT ( 'NONE', #72 ) ;
#219 = CARTESIAN_POINT ( 'NONE',  ( 0.0000000000000000000, 25.99999999999996092, -7.000000000000000000 ) ) ;
#220 = AXIS2_PLACEMENT_3D ( 'NONE', #167, #66, #233 ) ;
#221 = DIRECTION ( 'NONE',  ( 0.0000000000000000000, -0.0000000000000000000, -1.000000000000000000 ) ) ;
#222 = APPROVAL_STATUS ( 'not_yet_approved' ) ;
#223 = ORIENTED_EDGE ( 'NONE', *, *, #119, .T. ) ;
#224 = FACE_BOUND ( 'NONE', #117, .T. ) ;
#225 = PERSON_AND_ORGANIZATION_ROLE ( 'design_owner' ) ;
#226 = PERSON_AND_ORGANIZATION_ROLE ( 'classification_officer' ) ;
#227 = EDGE_LOOP ( 'NONE', ( #252 ) ) ;
#228 = APPLICATION_PROTOCOL_DEFINITION ( 'international standard', 'config_control_design', 1994, #231 ) ;
#229 = APPROVAL_DATE_TIME ( #208, #168 ) ;
#230 = EDGE_CURVE ( 'NONE', #258, #258, #106, .T. ) ;
#231 = APPLICATION_CONTEXT ( 'configuration controlled 3d designs of mechanical parts and assemblies' ) ;
#232 = AXIS2_PLACEMENT_3D ( 'NONE', #194, #149, #128 ) ;
#233 = DIRECTION ( 'NONE',  ( 0.0000000000000000000, 0.0000000000000000000, -1.000000000000000000 ) ) ;
#234 = DIRECTION ( 'NONE',  ( 0.0000000000000000000, 0.0000000000000000000, -1.000000000000000000 ) ) ;
#235 = LOCAL_TIME ( 3, 15, 1.000000000000000000, #102 ) ;
#236 = DIRECTION ( 'NONE',  ( 0.0000000000000000000, -1.000000000000000000, 0.0000000000000000000 ) ) ;
#237 = ADVANCED_FACE ( 'NONE', ( #267, #104 ), #25, .T. ) ;
#238 = DIRECTION ( 'NONE',  ( 0.0000000000000000000, 0.0000000000000000000, -1.000000000000000000 ) ) ;
#239 = ORGANIZATION ( 'UNSPECIFIED', 'UNSPECIFIED', '' ) ;
#240 = DIRECTION ( 'NONE',  ( 0.0000000000000000000, 0.0000000000000000000, -1.000000000000000000 ) ) ;
#241 = FACE_OUTER_BOUND ( 'NONE', #245, .T. ) ;
#242 = DIRECTION ( 'NONE',  ( 0.0000000000000000000, 0.0000000000000000000, -1.000000000000000000 ) ) ;
#243 = ORIENTED_EDGE ( 'NONE', *, *, #157, .F. ) ;
#244 = PERSON_AND_ORGANIZATION_ROLE ( 'creator' ) ;
#245 = EDGE_LOOP ( 'NONE', ( #139 ) ) ;
#246 = DATE_AND_TIME ( #54, #123 ) ;
#247 = APPROVAL_PERSON_ORGANIZATION ( #99, #168, #57 ) ;
#248 = DIRECTION ( 'NONE',  ( 0.0000000000000000000, 1.000000000000000000, 0.0000000000000000000 ) ) ;
#249 = AXIS2_PLACEMENT_3D ( 'NONE', #158, #112, #31 ) ;
#250 = CYLINDRICAL_SURFACE ( 'NONE', #2, 12.50000000000000000 ) ;
#251 = CIRCLE ( 'NONE', #109, 12.50000000000000000 ) ;
#252 = ORIENTED_EDGE ( 'NONE', *, *, #147, .F. ) ;
#253 = ADVANCED_FACE ( 'NONE', ( #22, #126 ), #211, .F. ) ;
#254 = DIRECTION ( 'NONE',  ( 0.0000000000000000000, 0.0000000000000000000, 1.000000000000000000 ) ) ;
#255 = AXIS2_PLACEMENT_3D ( 'NONE', #150, #236, #238 ) ;
#256 = CARTESIAN_POINT ( 'NONE',  ( 0.0000000000000000000, 0.0000000000000000000, 0.0000000000000000000 ) ) ;
#257 = SHAPE_DEFINITION_REPRESENTATION ( #125, #40 ) ;
#258 = VERTEX_POINT ( 'NONE', #111 ) ;
#259 = FACE_OUTER_BOUND ( 'NONE', #206, .T. ) ;
#260 = EDGE_CURVE ( 'NONE', #93, #93, #130, .T. ) ;
#261 = EDGE_LOOP ( 'NONE', ( #47 ) ) ;
#262 = CALENDAR_DATE ( 2020, 14, 9 ) ;
#263 = EDGE_LOOP ( 'NONE', ( #243 ) ) ;
#264 = DIRECTION ( 'NONE',  ( 0.0000000000000000000, 0.0000000000000000000, 1.000000000000000000 ) ) ;
#265 = DATE_AND_TIME ( #262, #235 ) ;
#266 = LOCAL_TIME ( 3, 15, 1.000000000000000000, #116 ) ;
#267 = FACE_OUTER_BOUND ( 'NONE', #100, .T. ) ;
#268 = CARTESIAN_POINT ( 'NONE',  ( 0.0000000000000000000, 48.50000000000000000, 0.0000000000000000000 ) ) ;
#269 = LOCAL_TIME ( 3, 15, 1.000000000000000000, #140 ) ;
ENDSEC;
END-ISO-10303-21;
