ISO-10303-21;
HEADER;
FILE_DESCRIPTION (( 'STEP AP214' ),
    '1' );
FILE_NAME ('Cylindre Ø45,5 Alu.STEP',
    '2020-09-28T16:36:37',
    ( '' ),
    ( '' ),
    'SwSTEP 2.0',
    'SolidWorks 2020',
    '' );
FILE_SCHEMA (( 'AUTOMOTIVE_DESIGN' ));
ENDSEC;

DATA;
#1 = LINE ( 'NONE', #143, #44 ) ;
#2 = ORIENTED_EDGE ( 'NONE', *, *, #127, .F. ) ;
#3 = EDGE_CURVE ( 'NONE', #172, #76, #153, .T. ) ;
#4 = UNCERTAINTY_MEASURE_WITH_UNIT (LENGTH_MEASURE( 1.000000000000000082E-05 ), #240, 'distance_accuracy_value', 'NONE');
#5 = CARTESIAN_POINT ( 'NONE',  ( 22.25000000000000000, 0.000000000000000000, 50.00000000000000000 ) ) ;
#6 = ADVANCED_FACE ( 'NONE', ( #263, #43 ), #203, .F. ) ;
#7 = FACE_OUTER_BOUND ( 'NONE', #174, .T. ) ;
#8 = CARTESIAN_POINT ( 'NONE',  ( -22.74999999999998224, 7.499999999999996447, -50.00000000000000000 ) ) ;
#9 = ORIENTED_EDGE ( 'NONE', *, *, #112, .T. ) ;
#10 = EDGE_CURVE ( 'NONE', #51, #260, #142, .T. ) ;
#11 = AXIS2_PLACEMENT_3D ( 'NONE', #149, #89, #168 ) ;
#12 = CARTESIAN_POINT ( 'NONE',  ( -12.94380782381218076, 31.94039735099335786, -7.667990030907124499 ) ) ;
#13 = ORIENTED_EDGE ( 'NONE', *, *, #205, .F. ) ;
#14 = APPLICATION_CONTEXT ( 'automotive_design' ) ;
#15 = ORIENTED_EDGE ( 'NONE', *, *, #32, .F. ) ;
#16 = FILL_AREA_STYLE ('',( #139 ) ) ;
#17 = ORIENTED_EDGE ( 'NONE', *, *, #135, .F. ) ;
#18 = COLOUR_RGB ( '',0.7529411764705882248, 0.7529411764705882248, 0.7529411764705882248 ) ;
#19 = DIRECTION ( 'NONE',  ( -0.000000000000000000, -0.000000000000000000, 1.000000000000000000 ) ) ;
#20 = CYLINDRICAL_SURFACE ( 'NONE', #77, 22.74999999999998224 ) ;
#21 = UNCERTAINTY_MEASURE_WITH_UNIT (LENGTH_MEASURE( 1.000000000000000082E-05 ), #78, 'distance_accuracy_value', 'NONE');
#22 = DIRECTION ( 'NONE',  ( 1.000000000000000000, 0.000000000000000000, 0.000000000000000000 ) ) ;
#23 = AXIS2_PLACEMENT_3D ( 'NONE', #8, #208, #166 ) ;
#24 = DIRECTION ( 'NONE',  ( -1.000000000000000000, 0.000000000000000000, -0.000000000000000000 ) ) ;
#25 = EDGE_CURVE ( 'NONE', #257, #190, #221, .T. ) ;
#26 = DIRECTION ( 'NONE',  ( 1.000000000000000000, 0.000000000000000000, 0.000000000000000000 ) ) ;
#27 = AXIS2_PLACEMENT_3D ( 'NONE', #161, #42, #123 ) ;
#28 = CARTESIAN_POINT ( 'NONE',  ( -22.74999999999998224, 2.786071468060226198E-15, -50.00000000000000000 ) ) ;
#29 = PLANE ( 'NONE',  #23 ) ;
#30 = CLOSED_SHELL ( 'NONE', ( #209, #234, #6, #108, #35, #185, #182 ) ) ;
#31 = DIRECTION ( 'NONE',  ( 1.000000000000000000, 0.000000000000000000, 0.000000000000000000 ) ) ;
#32 = EDGE_CURVE ( 'NONE', #190, #212, #62, .T. ) ;
#33 = CYLINDRICAL_SURFACE ( 'NONE', #179, 22.74999999999998224 ) ;
#34 = ORIENTED_EDGE ( 'NONE', *, *, #205, .T. ) ;
#35 = ADVANCED_FACE ( 'NONE', ( #176 ), #156, .F. ) ;
#36 =( NAMED_UNIT ( * ) SI_UNIT ( $, .STERADIAN. ) SOLID_ANGLE_UNIT ( ) );
#37 = ORIENTED_EDGE ( 'NONE', *, *, #219, .T. ) ;
#38 = ORIENTED_EDGE ( 'NONE', *, *, #72, .F. ) ;
#39 = DIRECTION ( 'NONE',  ( 1.000000000000000000, -0.000000000000000000, -0.000000000000000000 ) ) ;
#40 = CIRCLE ( 'NONE', #206, 7.500000000000000000 ) ;
#41 = VERTEX_POINT ( 'NONE', #204 ) ;
#42 = DIRECTION ( 'NONE',  ( -0.000000000000000000, -0.000000000000000000, 1.000000000000000000 ) ) ;
#43 = FACE_OUTER_BOUND ( 'NONE', #229, .T. ) ;
#44 = VECTOR ( 'NONE', #121, 1000.000000000000114 ) ;
#45 =( GEOMETRIC_REPRESENTATION_CONTEXT ( 3 ) GLOBAL_UNCERTAINTY_ASSIGNED_CONTEXT ( ( #4 ) ) GLOBAL_UNIT_ASSIGNED_CONTEXT ( ( #240, #56, #36 ) ) REPRESENTATION_CONTEXT ( 'NONE', 'WORKASPACE' ) );
#46 = DIRECTION ( 'NONE',  ( 0.000000000000000000, -0.000000000000000000, 1.000000000000000000 ) ) ;
#47 = EDGE_CURVE ( 'NONE', #260, #114, #1, .T. ) ;
#48 = DIRECTION ( 'NONE',  ( 1.000000000000000000, 0.000000000000000000, 0.000000000000000000 ) ) ;
#49 = PRODUCT ( 'Cylindre Ø45,5 Alu', 'Cylindre Ø45,5 Alu', '', ( #154 ) ) ;
#50 = ADVANCED_BREP_SHAPE_REPRESENTATION ( 'Cylindre Ï45,5 Alu', ( #261, #224 ), #45 ) ;
#51 = VERTEX_POINT ( 'NONE', #140 ) ;
#52 =( BOUNDED_CURVE ( )  B_SPLINE_CURVE ( 3, ( #191, #75, #12, #151 ),
 .UNSPECIFIED., .F., .F. ) 
 B_SPLINE_CURVE_WITH_KNOTS ( ( 4, 4 ),
 ( 5.048343342748969675, 7.518027271610202789 ),
 .UNSPECIFIED. ) 
 CURVE ( )  GEOMETRIC_REPRESENTATION_ITEM ( )  RATIONAL_B_SPLINE_CURVE ( ( 1.000000000000000000, 0.5531135531135529249, 0.5531135531135529249, 1.000000000000000000 ) ) 
 REPRESENTATION_ITEM ( '' )  );
#53 = EDGE_CURVE ( 'NONE', #65, #212, #110, .T. ) ;
#54 = ORIENTED_EDGE ( 'NONE', *, *, #25, .T. ) ;
#55 =( GEOMETRIC_REPRESENTATION_CONTEXT ( 3 ) GLOBAL_UNCERTAINTY_ASSIGNED_CONTEXT ( ( #202 ) ) GLOBAL_UNIT_ASSIGNED_CONTEXT ( ( #253, #198, #216 ) ) REPRESENTATION_CONTEXT ( 'NONE', 'WORKASPACE' ) );
#56 =( NAMED_UNIT ( * ) PLANE_ANGLE_UNIT ( ) SI_UNIT ( $, .RADIAN. ) );
#57 = EDGE_LOOP ( 'NONE', ( #122, #152, #37, #214 ) ) ;
#58 = PRESENTATION_STYLE_ASSIGNMENT (( #235 ) ) ;
#59 = EDGE_CURVE ( 'NONE', #114, #41, #245, .T. ) ;
#60 = CARTESIAN_POINT ( 'NONE',  ( 0.000000000000000000, 0.000000000000000000, 50.00000000000000000 ) ) ;
#61 = AXIS2_PLACEMENT_3D ( 'NONE', #104, #238, #159 ) ;
#62 = LINE ( 'NONE', #181, #98 ) ;
#63 = CARTESIAN_POINT ( 'NONE',  ( 0.000000000000000000, 0.000000000000000000, -50.00000000000001421 ) ) ;
#64 = PRODUCT_DEFINITION_CONTEXT ( 'detailed design', #242, 'design' ) ;
#65 = VERTEX_POINT ( 'NONE', #243 ) ;
#66 = CONICAL_SURFACE ( 'NONE', #215, 22.25000000000000000, 0.1464440676880353620 ) ;
#67 = DIRECTION ( 'NONE',  ( 1.000000000000000000, 0.000000000000000000, 0.000000000000000000 ) ) ;
#68 = PRODUCT_RELATED_PRODUCT_CATEGORY ( 'part', '', ( #49 ) ) ;
#69 = PRESENTATION_LAYER_ASSIGNMENT (  '', '', ( #103 ) ) ;
#70 = LINE ( 'NONE', #186, #193 ) ;
#71 = DIRECTION ( 'NONE',  ( -0.000000000000000000, -0.000000000000000000, 1.000000000000000000 ) ) ;
#72 = EDGE_CURVE ( 'NONE', #195, #65, #106, .T. ) ;
#73 = AXIS2_PLACEMENT_3D ( 'NONE', #225, #71, #131 ) ;
#74 = ORIENTED_EDGE ( 'NONE', *, *, #3, .T. ) ;
#75 = CARTESIAN_POINT ( 'NONE',  ( 12.94380782381218786, 31.94039735099334720, -7.667990030907124499 ) ) ;
#76 = VERTEX_POINT ( 'NONE', #218 ) ;
#77 = AXIS2_PLACEMENT_3D ( 'NONE', #183, #101, #178 ) ;
#78 =( LENGTH_UNIT ( ) NAMED_UNIT ( * ) SI_UNIT ( .MILLI., .METRE. ) );
#79 = SURFACE_STYLE_FILL_AREA ( #16 ) ;
#80 = ORIENTED_EDGE ( 'NONE', *, *, #248, .F. ) ;
#81 = EDGE_CURVE ( 'NONE', #76, #172, #157, .T. ) ;
#82 = DIRECTION ( 'NONE',  ( -0.000000000000000000, -0.000000000000000000, 1.000000000000000000 ) ) ;
#83 = ORIENTED_EDGE ( 'NONE', *, *, #72, .T. ) ;
#84 = AXIS2_PLACEMENT_3D ( 'NONE', #141, #246, #24 ) ;
#85 = AXIS2_PLACEMENT_3D ( 'NONE', #60, #105, #22 ) ;
#86 = FACE_OUTER_BOUND ( 'NONE', #57, .T. ) ;
#87 = SURFACE_STYLE_USAGE ( .BOTH. , #171 ) ;
#88 = CARTESIAN_POINT ( 'NONE',  ( -22.74999999999998224, 2.786071468060226198E-15, 50.00000000000000000 ) ) ;
#89 = DIRECTION ( 'NONE',  ( -0.000000000000000000, -0.000000000000000000, 1.000000000000000000 ) ) ;
#90 = EDGE_LOOP ( 'NONE', ( #2, #133, #158, #233, #192 ) ) ;
#91 = AXIS2_PLACEMENT_3D ( 'NONE', #120, #199, #26 ) ;
#92 = CARTESIAN_POINT ( 'NONE',  ( -22.74999999999998224, 2.786071468060226198E-15, 60.64138829210233439 ) ) ;
#93 = CARTESIAN_POINT ( 'NONE',  ( 0.000000000000000000, 0.000000000000000000, 0.000000000000000000 ) ) ;
#94 = ORIENTED_EDGE ( 'NONE', *, *, #248, .T. ) ;
#95 =( NAMED_UNIT ( * ) SI_UNIT ( $, .STERADIAN. ) SOLID_ANGLE_UNIT ( ) );
#96 = EDGE_LOOP ( 'NONE', ( #196, #83, #255, #194 ) ) ;
#97 = PRODUCT_DEFINITION ( 'UNKNOWN', '', #228, #64 ) ;
#98 = VECTOR ( 'NONE', #200, 1000.000000000000000 ) ;
#99 = ORIENTED_EDGE ( 'NONE', *, *, #53, .F. ) ;
#100 = DIRECTION ( 'NONE',  ( 1.000000000000000000, 0.000000000000000000, 0.000000000000000000 ) ) ;
#101 = DIRECTION ( 'NONE',  ( -0.000000000000000000, -0.000000000000000000, 1.000000000000000000 ) ) ;
#102 = EDGE_LOOP ( 'NONE', ( #13, #54, #118, #137, #9, #220, #99, #38 ) ) ;
#103 = STYLED_ITEM ( 'NONE', ( #165 ), #261 ) ;
#104 = CARTESIAN_POINT ( 'NONE',  ( 0.000000000000000000, 0.000000000000000000, 50.00000000000000000 ) ) ;
#105 = DIRECTION ( 'NONE',  ( -0.000000000000000000, -0.000000000000000000, 1.000000000000000000 ) ) ;
#106 = CIRCLE ( 'NONE', #227, 22.74999999999998224 ) ;
#107 = CIRCLE ( 'NONE', #117, 7.500000000000000000 ) ;
#108 = ADVANCED_FACE ( 'NONE', ( #138 ), #20, .T. ) ;
#109 = DIRECTION ( 'NONE',  ( 1.000000000000000000, 0.000000000000000000, 0.000000000000000000 ) ) ;
#110 = CIRCLE ( 'NONE', #91, 22.74999999999998224 ) ;
#111 = DIRECTION ( 'NONE',  ( -0.000000000000000000, -0.000000000000000000, 1.000000000000000000 ) ) ;
#112 = EDGE_CURVE ( 'NONE', #260, #190, #40, .T. ) ;
#113 = LINE ( 'NONE', #92, #129 ) ;
#114 = VERTEX_POINT ( 'NONE', #5 ) ;
#115 = PRODUCT_DEFINITION_SHAPE ( 'NONE', 'NONE',  #97 ) ;
#116 = SURFACE_STYLE_FILL_AREA ( #187 ) ;
#117 = AXIS2_PLACEMENT_3D ( 'NONE', #247, #223, #126 ) ;
#118 = ORIENTED_EDGE ( 'NONE', *, *, #119, .T. ) ;
#119 = EDGE_CURVE ( 'NONE', #190, #51, #107, .T. ) ;
#120 = CARTESIAN_POINT ( 'NONE',  ( 0.000000000000000000, 0.000000000000000000, -50.00000000000000000 ) ) ;
#121 = DIRECTION ( 'NONE',  ( 0.1459211920624100267, 0.000000000000000000, 0.9892962173722716912 ) ) ;
#122 = ORIENTED_EDGE ( 'NONE', *, *, #10, .F. ) ;
#123 = DIRECTION ( 'NONE',  ( 1.000000000000000000, 0.000000000000000000, 0.000000000000000000 ) ) ;
#124 = DIRECTION ( 'NONE',  ( -0.000000000000000000, -0.000000000000000000, 1.000000000000000000 ) ) ;
#125 = CIRCLE ( 'NONE', #11, 22.25000000000000000 ) ;
#126 = DIRECTION ( 'NONE',  ( 1.000000000000000000, 0.000000000000000000, 0.000000000000000000 ) ) ;
#127 = EDGE_CURVE ( 'NONE', #51, #41, #128, .T. ) ;
#128 = LINE ( 'NONE', #207, #239 ) ;
#129 = VECTOR ( 'NONE', #167, 1000.000000000000000 ) ;
#130 = DIRECTION ( 'NONE',  ( -0.1459211920624100267, 1.787019207869966351E-17, 0.9892962173722716912 ) ) ;
#131 = DIRECTION ( 'NONE',  ( 1.000000000000000000, 0.000000000000000000, 0.000000000000000000 ) ) ;
#132 = ORIENTED_EDGE ( 'NONE', *, *, #219, .F. ) ;
#133 = ORIENTED_EDGE ( 'NONE', *, *, #119, .F. ) ;
#134 = ORIENTED_EDGE ( 'NONE', *, *, #53, .T. ) ;
#135 = EDGE_CURVE ( 'NONE', #65, #76, #70, .T. ) ;
#136 = DIRECTION ( 'NONE',  ( 1.000000000000000000, 0.000000000000000000, 0.000000000000000000 ) ) ;
#137 = ORIENTED_EDGE ( 'NONE', *, *, #10, .T. ) ;
#138 = FACE_OUTER_BOUND ( 'NONE', #96, .T. ) ;
#139 = FILL_AREA_STYLE_COLOUR ( '', #231 ) ;
#140 = CARTESIAN_POINT ( 'NONE',  ( -7.500000000000000000, 1.821662113731687695E-15, -50.00000000000001421 ) ) ;
#141 = CARTESIAN_POINT ( 'NONE',  ( 0.000000000000000000, 22.74999999999998224, 50.00000000000000000 ) ) ;
#142 = CIRCLE ( 'NONE', #173, 7.500000000000000000 ) ;
#143 = CARTESIAN_POINT ( 'NONE',  ( 22.25000000000000000, 0.000000000000000000, 50.00000000000000000 ) ) ;
#144 = CONICAL_SURFACE ( 'NONE', #73, 22.25000000000000000, 0.1464440676880353620 ) ;
#145 =( GEOMETRIC_REPRESENTATION_CONTEXT ( 3 ) GLOBAL_UNCERTAINTY_ASSIGNED_CONTEXT ( ( #21 ) ) GLOBAL_UNIT_ASSIGNED_CONTEXT ( ( #78, #258, #95 ) ) REPRESENTATION_CONTEXT ( 'NONE', 'WORKASPACE' ) );
#146 = DIRECTION ( 'NONE',  ( 1.000000000000000000, 0.000000000000000000, 0.000000000000000000 ) ) ;
#147 = CARTESIAN_POINT ( 'NONE',  ( 0.000000000000000000, 0.000000000000000000, -50.00000000000000000 ) ) ;
#148 = CARTESIAN_POINT ( 'NONE',  ( 0.000000000000000000, 0.000000000000000000, 50.00000000000000000 ) ) ;
#149 = CARTESIAN_POINT ( 'NONE',  ( 0.000000000000000000, 0.000000000000000000, 50.00000000000000000 ) ) ;
#150 = EDGE_LOOP ( 'NONE', ( #241, #132 ) ) ;
#151 = CARTESIAN_POINT ( 'NONE',  ( -21.47818660874328245, 7.499999999999996447, -50.00000000000000000 ) ) ;
#152 = ORIENTED_EDGE ( 'NONE', *, *, #127, .T. ) ;
#153 = CIRCLE ( 'NONE', #27, 22.74999999999998224 ) ;
#154 = PRODUCT_CONTEXT ( 'NONE', #14, 'mechanical' ) ;
#155 = APPLICATION_PROTOCOL_DEFINITION ( 'draft international standard', 'automotive_design', 1998, #242 ) ;
#156 = PLANE ( 'NONE',  #170 ) ;
#157 = CIRCLE ( 'NONE', #85, 22.74999999999998224 ) ;
#158 = ORIENTED_EDGE ( 'NONE', *, *, #112, .F. ) ;
#159 = DIRECTION ( 'NONE',  ( 1.000000000000000000, 0.000000000000000000, 0.000000000000000000 ) ) ;
#160 = DIRECTION ( 'NONE',  ( 1.000000000000000000, 0.000000000000000000, 0.000000000000000000 ) ) ;
#161 = CARTESIAN_POINT ( 'NONE',  ( 0.000000000000000000, 0.000000000000000000, 50.00000000000000000 ) ) ;
#162 = MECHANICAL_DESIGN_GEOMETRIC_PRESENTATION_REPRESENTATION (  '', ( #180 ), #145 ) ;
#163 = DIRECTION ( 'NONE',  ( -0.000000000000000000, -0.000000000000000000, 1.000000000000000000 ) ) ;
#164 = CARTESIAN_POINT ( 'NONE',  ( 0.000000000000000000, 7.499999999999968026, -50.00000000000007105 ) ) ;
#165 = PRESENTATION_STYLE_ASSIGNMENT (( #87 ) ) ;
#166 = DIRECTION ( 'NONE',  ( 0.000000000000000000, -0.4999999999999948375, -0.8660254037844415942 ) ) ;
#167 = DIRECTION ( 'NONE',  ( -0.000000000000000000, -0.000000000000000000, 1.000000000000000000 ) ) ;
#168 = DIRECTION ( 'NONE',  ( 1.000000000000000000, 0.000000000000000000, 0.000000000000000000 ) ) ;
#169 = ORIENTED_EDGE ( 'NONE', *, *, #81, .T. ) ;
#170 = AXIS2_PLACEMENT_3D ( 'NONE', #201, #46, #67 ) ;
#171 = SURFACE_SIDE_STYLE ('',( #116 ) ) ;
#172 = VERTEX_POINT ( 'NONE', #88 ) ;
#173 = AXIS2_PLACEMENT_3D ( 'NONE', #262, #82, #160 ) ;
#174 = EDGE_LOOP ( 'NONE', ( #34, #211, #236, #17, #134, #94 ) ) ;
#175 = APPLICATION_PROTOCOL_DEFINITION ( 'draft international standard', 'automotive_design', 1998, #14 ) ;
#176 = FACE_OUTER_BOUND ( 'NONE', #102, .T. ) ;
#177 = DIRECTION ( 'NONE',  ( 0.000000000000000000, 0.000000000000000000, 1.000000000000000000 ) ) ;
#178 = DIRECTION ( 'NONE',  ( 1.000000000000000000, 0.000000000000000000, 0.000000000000000000 ) ) ;
#179 = AXIS2_PLACEMENT_3D ( 'NONE', #256, #111, #31 ) ;
#180 = STYLED_ITEM ( 'NONE', ( #58 ), #50 ) ;
#181 = CARTESIAN_POINT ( 'NONE',  ( -22.74999999999998224, 7.499999999999996447, -50.00000000000000000 ) ) ;
#182 = ADVANCED_FACE ( 'NONE', ( #226 ), #29, .F. ) ;
#183 = CARTESIAN_POINT ( 'NONE',  ( 0.000000000000000000, 0.000000000000000000, 60.64138829210233439 ) ) ;
#184 = CARTESIAN_POINT ( 'NONE',  ( 0.000000000000000000, 0.000000000000000000, -50.00000000000000000 ) ) ;
#185 = ADVANCED_FACE ( 'NONE', ( #252 ), #66, .F. ) ;
#186 = CARTESIAN_POINT ( 'NONE',  ( 22.74999999999998224, 0.000000000000000000, 60.64138829210233439 ) ) ;
#187 = FILL_AREA_STYLE ('',( #189 ) ) ;
#188 = DIRECTION ( 'NONE',  ( -0.000000000000000000, -0.000000000000000000, 1.000000000000000000 ) ) ;
#189 = FILL_AREA_STYLE_COLOUR ( '', #18 ) ;
#190 = VERTEX_POINT ( 'NONE', #164 ) ;
#191 = CARTESIAN_POINT ( 'NONE',  ( 21.47818660874328245, 7.500000000000000000, -50.00000000000000000 ) ) ;
#192 = ORIENTED_EDGE ( 'NONE', *, *, #59, .T. ) ;
#193 = VECTOR ( 'NONE', #188, 1000.000000000000000 ) ;
#194 = ORIENTED_EDGE ( 'NONE', *, *, #3, .F. ) ;
#195 = VERTEX_POINT ( 'NONE', #28 ) ;
#196 = ORIENTED_EDGE ( 'NONE', *, *, #222, .F. ) ;
#197 = PRESENTATION_LAYER_ASSIGNMENT (  '', '', ( #180 ) ) ;
#198 =( NAMED_UNIT ( * ) PLANE_ANGLE_UNIT ( ) SI_UNIT ( $, .RADIAN. ) );
#199 = DIRECTION ( 'NONE',  ( -0.000000000000000000, -0.000000000000000000, 1.000000000000000000 ) ) ;
#200 = DIRECTION ( 'NONE',  ( 1.000000000000000000, -0.000000000000000000, -0.000000000000000000 ) ) ;
#201 = CARTESIAN_POINT ( 'NONE',  ( 0.000000000000000000, 7.500000000000000000, -50.00000000000000000 ) ) ;
#202 = UNCERTAINTY_MEASURE_WITH_UNIT (LENGTH_MEASURE( 1.000000000000000082E-05 ), #253, 'distance_accuracy_value', 'NONE');
#203 = PLANE ( 'NONE',  #84 ) ;
#204 = CARTESIAN_POINT ( 'NONE',  ( -22.25000000000000000, 2.724839128102860596E-15, 50.00000000000000000 ) ) ;
#205 = EDGE_CURVE ( 'NONE', #257, #195, #259, .T. ) ;
#206 = AXIS2_PLACEMENT_3D ( 'NONE', #63, #124, #48 ) ;
#207 = CARTESIAN_POINT ( 'NONE',  ( -22.25000000000000000, 2.724839128102860596E-15, 50.00000000000000000 ) ) ;
#208 = DIRECTION ( 'NONE',  ( 0.000000000000000000, -0.8660254037844415942, 0.4999999999999948375 ) ) ;
#209 = ADVANCED_FACE ( 'NONE', ( #86 ), #144, .F. ) ;
#210 = CARTESIAN_POINT ( 'NONE',  ( 7.500000000000000000, 0.000000000000000000, -50.00000000000001421 ) ) ;
#211 = ORIENTED_EDGE ( 'NONE', *, *, #222, .T. ) ;
#212 = VERTEX_POINT ( 'NONE', #251 ) ;
#213 = ORIENTED_EDGE ( 'NONE', *, *, #25, .F. ) ;
#214 = ORIENTED_EDGE ( 'NONE', *, *, #47, .F. ) ;
#215 = AXIS2_PLACEMENT_3D ( 'NONE', #148, #250, #146 ) ;
#216 =( NAMED_UNIT ( * ) SI_UNIT ( $, .STERADIAN. ) SOLID_ANGLE_UNIT ( ) );
#217 = EDGE_LOOP ( 'NONE', ( #80, #15, #213 ) ) ;
#218 = CARTESIAN_POINT ( 'NONE',  ( 22.74999999999998224, 0.000000000000000000, 50.00000000000000000 ) ) ;
#219 = EDGE_CURVE ( 'NONE', #41, #114, #125, .T. ) ;
#220 = ORIENTED_EDGE ( 'NONE', *, *, #32, .T. ) ;
#221 = LINE ( 'NONE', #244, #254 ) ;
#222 = EDGE_CURVE ( 'NONE', #195, #172, #113, .T. ) ;
#223 = DIRECTION ( 'NONE',  ( -0.000000000000000000, -0.000000000000000000, 1.000000000000000000 ) ) ;
#224 = AXIS2_PLACEMENT_3D ( 'NONE', #93, #177, #136 ) ;
#225 = CARTESIAN_POINT ( 'NONE',  ( 0.000000000000000000, 0.000000000000000000, 50.00000000000000000 ) ) ;
#226 = FACE_OUTER_BOUND ( 'NONE', #217, .T. ) ;
#227 = AXIS2_PLACEMENT_3D ( 'NONE', #184, #19, #100 ) ;
#228 = PRODUCT_DEFINITION_FORMATION_WITH_SPECIFIED_SOURCE ( 'ANY', '', #49, .NOT_KNOWN. ) ;
#229 = EDGE_LOOP ( 'NONE', ( #169, #74 ) ) ;
#230 = CARTESIAN_POINT ( 'NONE',  ( -21.47818660874328245, 7.499999999999996447, -50.00000000000000000 ) ) ;
#231 = COLOUR_RGB ( '',0.7529411764705882248, 0.7529411764705882248, 0.7529411764705882248 ) ;
#232 = SURFACE_SIDE_STYLE ('',( #79 ) ) ;
#233 = ORIENTED_EDGE ( 'NONE', *, *, #47, .T. ) ;
#234 = ADVANCED_FACE ( 'NONE', ( #7 ), #33, .T. ) ;
#235 = SURFACE_STYLE_USAGE ( .BOTH. , #232 ) ;
#236 = ORIENTED_EDGE ( 'NONE', *, *, #81, .F. ) ;
#237 = SHAPE_DEFINITION_REPRESENTATION ( #115, #50 ) ;
#238 = DIRECTION ( 'NONE',  ( -0.000000000000000000, -0.000000000000000000, 1.000000000000000000 ) ) ;
#239 = VECTOR ( 'NONE', #130, 1000.000000000000114 ) ;
#240 =( LENGTH_UNIT ( ) NAMED_UNIT ( * ) SI_UNIT ( .MILLI., .METRE. ) );
#241 = ORIENTED_EDGE ( 'NONE', *, *, #59, .F. ) ;
#242 = APPLICATION_CONTEXT ( 'automotive_design' ) ;
#243 = CARTESIAN_POINT ( 'NONE',  ( 22.74999999999998224, 0.000000000000000000, -50.00000000000000000 ) ) ;
#244 = CARTESIAN_POINT ( 'NONE',  ( -22.74999999999998224, 7.499999999999996447, -50.00000000000000000 ) ) ;
#245 = CIRCLE ( 'NONE', #61, 22.25000000000000000 ) ;
#246 = DIRECTION ( 'NONE',  ( 0.000000000000000000, 0.000000000000000000, -1.000000000000000000 ) ) ;
#247 = CARTESIAN_POINT ( 'NONE',  ( 0.000000000000000000, 0.000000000000000000, -50.00000000000001421 ) ) ;
#248 = EDGE_CURVE ( 'NONE', #212, #257, #52, .T. ) ;
#249 = MECHANICAL_DESIGN_GEOMETRIC_PRESENTATION_REPRESENTATION (  '', ( #103 ), #55 ) ;
#250 = DIRECTION ( 'NONE',  ( -0.000000000000000000, -0.000000000000000000, 1.000000000000000000 ) ) ;
#251 = CARTESIAN_POINT ( 'NONE',  ( 21.47818660874328245, 7.500000000000000000, -50.00000000000000000 ) ) ;
#252 = FACE_OUTER_BOUND ( 'NONE', #90, .T. ) ;
#253 =( LENGTH_UNIT ( ) NAMED_UNIT ( * ) SI_UNIT ( .MILLI., .METRE. ) );
#254 = VECTOR ( 'NONE', #39, 1000.000000000000000 ) ;
#255 = ORIENTED_EDGE ( 'NONE', *, *, #135, .T. ) ;
#256 = CARTESIAN_POINT ( 'NONE',  ( 0.000000000000000000, 0.000000000000000000, 60.64138829210233439 ) ) ;
#257 = VERTEX_POINT ( 'NONE', #230 ) ;
#258 =( NAMED_UNIT ( * ) PLANE_ANGLE_UNIT ( ) SI_UNIT ( $, .RADIAN. ) );
#259 = CIRCLE ( 'NONE', #264, 22.74999999999998224 ) ;
#260 = VERTEX_POINT ( 'NONE', #210 ) ;
#261 = MANIFOLD_SOLID_BREP ( 'Enlèv. mat.-Extru.1', #30 ) ;
#262 = CARTESIAN_POINT ( 'NONE',  ( 0.000000000000000000, 0.000000000000000000, -50.00000000000001421 ) ) ;
#263 = FACE_BOUND ( 'NONE', #150, .T. ) ;
#264 = AXIS2_PLACEMENT_3D ( 'NONE', #147, #163, #109 ) ;
ENDSEC;
END-ISO-10303-21;
