ISO-10303-21;
HEADER;
FILE_DESCRIPTION(('CATIA V5 STEP Exchange'),'2;1');

FILE_NAME('C:\\Users\\flori\\OneDrive\\Bureau\\Etudes\\ENSMM\\StageImmersion\\Missions\\Organisation\\OutilHauteurCaisse.stp','2020-09-30T14:52:26+00:00',('none'),('none'),'CATIA Version 5 Release 20 GA (IN-10)','CATIA V5 STEP AP203','none');

FILE_SCHEMA(('CONFIG_CONTROL_DESIGN'));

ENDSEC;
/* file written by CATIA V5R20 */
DATA;
#5=PRODUCT('OutilHauteurCaisse','','',(#2)) ;
#1=APPLICATION_CONTEXT('configuration controlled 3D design of mechanical parts and assemblies') ;
#14=PRODUCT_DEFINITION('',' ',#6,#3) ;
#16=SECURITY_CLASSIFICATION(' ',' ',#15) ;
#15=SECURITY_CLASSIFICATION_LEVEL('unclassified') ;
#47=CARTESIAN_POINT(' ',(0.,0.,0.)) ;
#52=CARTESIAN_POINT('Axis2P3D Location',(0.,0.,0.)) ;
#57=CARTESIAN_POINT('Line Origine',(0.,0.,131.)) ;
#61=CARTESIAN_POINT('Vertex',(-5.,-7.27909546878E-014,131.)) ;
#63=CARTESIAN_POINT('Vertex',(5.,0.,131.)) ;
#66=CARTESIAN_POINT('Line Origine',(-5.,0.,65.5)) ;
#70=CARTESIAN_POINT('Vertex',(-5.,0.,0.)) ;
#73=CARTESIAN_POINT('Line Origine',(0.,0.,0.)) ;
#77=CARTESIAN_POINT('Vertex',(5.,0.,0.)) ;
#80=CARTESIAN_POINT('Line Origine',(5.,0.,65.5)) ;
#92=CARTESIAN_POINT('Axis2P3D Location',(0.,-7.27909546878E-014,131.)) ;
#97=CARTESIAN_POINT('Line Origine',(0.,30.,131.)) ;
#101=CARTESIAN_POINT('Vertex',(-5.,30.,131.)) ;
#103=CARTESIAN_POINT('Vertex',(5.,30.,131.)) ;
#106=CARTESIAN_POINT('Line Origine',(-5.,15.,131.)) ;
#111=CARTESIAN_POINT('Line Origine',(5.,15.,131.)) ;
#123=CARTESIAN_POINT('Axis2P3D Location',(0.,30.,131.)) ;
#128=CARTESIAN_POINT('Line Origine',(0.,30.,121.)) ;
#132=CARTESIAN_POINT('Vertex',(-5.,30.,121.)) ;
#134=CARTESIAN_POINT('Vertex',(5.,30.,121.)) ;
#137=CARTESIAN_POINT('Line Origine',(-5.,30.,126.)) ;
#142=CARTESIAN_POINT('Line Origine',(5.,30.,126.)) ;
#154=CARTESIAN_POINT('Axis2P3D Location',(0.,24.,27.)) ;
#159=CARTESIAN_POINT('Line Origine',(0.,24.,17.)) ;
#163=CARTESIAN_POINT('Vertex',(-5.,24.,17.)) ;
#165=CARTESIAN_POINT('Vertex',(5.,24.,17.)) ;
#168=CARTESIAN_POINT('Line Origine',(-5.,24.,22.)) ;
#172=CARTESIAN_POINT('Vertex',(-5.,24.,27.)) ;
#175=CARTESIAN_POINT('Line Origine',(0.,24.,27.)) ;
#179=CARTESIAN_POINT('Vertex',(5.,24.,27.)) ;
#182=CARTESIAN_POINT('Line Origine',(5.,24.,22.)) ;
#194=CARTESIAN_POINT('Axis2P3D Location',(0.,0.,0.)) ;
#199=CARTESIAN_POINT('Line Origine',(-5.,5.,0.)) ;
#203=CARTESIAN_POINT('Vertex',(-5.,10.,0.)) ;
#206=CARTESIAN_POINT('Line Origine',(0.,10.,0.)) ;
#210=CARTESIAN_POINT('Vertex',(5.,10.,-7.1054273576E-015)) ;
#213=CARTESIAN_POINT('Line Origine',(5.,5.,0.)) ;
#225=CARTESIAN_POINT('Axis2P3D Location',(0.,30.,121.)) ;
#230=CARTESIAN_POINT('Line Origine',(0.,10.2,121.)) ;
#234=CARTESIAN_POINT('Vertex',(5.,10.2,121.)) ;
#236=CARTESIAN_POINT('Vertex',(-5.,10.2,121.)) ;
#239=CARTESIAN_POINT('Line Origine',(-5.,20.1,121.)) ;
#244=CARTESIAN_POINT('Line Origine',(5.,20.1,121.)) ;
#256=CARTESIAN_POINT('Axis2P3D Location',(0.,10.2,120.8)) ;
#261=CARTESIAN_POINT('Axis2P3D Location',(5.,10.2,120.8)) ;
#265=CARTESIAN_POINT('Vertex',(5.,10.,120.8)) ;
#268=CARTESIAN_POINT('Line Origine',(0.,10.,120.8)) ;
#272=CARTESIAN_POINT('Vertex',(-5.,10.,120.8)) ;
#275=CARTESIAN_POINT('Axis2P3D Location',(-5.,10.2,120.8)) ;
#287=CARTESIAN_POINT('Axis2P3D Location',(0.,10.,27.)) ;
#292=CARTESIAN_POINT('Line Origine',(0.,10.2,27.)) ;
#296=CARTESIAN_POINT('Vertex',(5.,10.2,27.)) ;
#298=CARTESIAN_POINT('Vertex',(-5.,10.2,27.)) ;
#301=CARTESIAN_POINT('Line Origine',(5.,17.1,27.)) ;
#306=CARTESIAN_POINT('Line Origine',(-5.,17.1,27.)) ;
#318=CARTESIAN_POINT('Axis2P3D Location',(0.,10.,17.)) ;
#323=CARTESIAN_POINT('Line Origine',(0.,10.,27.2)) ;
#327=CARTESIAN_POINT('Vertex',(5.,10.,27.2)) ;
#329=CARTESIAN_POINT('Vertex',(-5.,10.,27.2)) ;
#332=CARTESIAN_POINT('Line Origine',(-5.,10.,74.)) ;
#337=CARTESIAN_POINT('Line Origine',(5.,10.,74.)) ;
#349=CARTESIAN_POINT('Axis2P3D Location',(0.,10.2,27.2)) ;
#354=CARTESIAN_POINT('Axis2P3D Location',(5.,10.2,27.2)) ;
#359=CARTESIAN_POINT('Axis2P3D Location',(-5.,10.2,27.2)) ;
#371=CARTESIAN_POINT('Axis2P3D Location',(5.,0.,0.)) ;
#376=CARTESIAN_POINT('Axis2P3D Location',(5.,10.2,16.8)) ;
#380=CARTESIAN_POINT('Vertex',(5.,10.,16.8)) ;
#382=CARTESIAN_POINT('Vertex',(5.,10.2,17.)) ;
#385=CARTESIAN_POINT('Line Origine',(5.,17.1,17.)) ;
#390=CARTESIAN_POINT('Line Origine',(5.,10.,8.4)) ;
#411=CARTESIAN_POINT('Axis2P3D Location',(-5.,0.,0.)) ;
#416=CARTESIAN_POINT('Line Origine',(-5.,10.,8.4)) ;
#420=CARTESIAN_POINT('Vertex',(-5.,10.,16.8)) ;
#423=CARTESIAN_POINT('Line Origine',(-5.,17.1,17.)) ;
#427=CARTESIAN_POINT('Vertex',(-5.,10.2,17.)) ;
#430=CARTESIAN_POINT('Axis2P3D Location',(-5.,10.2,16.8)) ;
#451=CARTESIAN_POINT('Axis2P3D Location',(0.,24.,17.)) ;
#456=CARTESIAN_POINT('Line Origine',(0.,10.2,17.)) ;
#468=CARTESIAN_POINT('Line Origine',(0.,10.,16.8)) ;
#480=CARTESIAN_POINT('Axis2P3D Location',(0.,10.2,16.8)) ;
#53=DIRECTION('Axis2P3D Direction',(0.,1.,0.)) ;
#54=DIRECTION('Axis2P3D XDirection',(0.,0.,1.)) ;
#58=DIRECTION('Vector Direction',(1.,0.,0.)) ;
#67=DIRECTION('Vector Direction',(0.,0.,1.)) ;
#74=DIRECTION('Vector Direction',(1.,0.,0.)) ;
#81=DIRECTION('Vector Direction',(0.,0.,1.)) ;
#93=DIRECTION('Axis2P3D Direction',(0.,0.,-1.)) ;
#94=DIRECTION('Axis2P3D XDirection',(0.,1.,0.)) ;
#98=DIRECTION('Vector Direction',(1.,0.,0.)) ;
#107=DIRECTION('Vector Direction',(0.,1.,0.)) ;
#112=DIRECTION('Vector Direction',(0.,1.,0.)) ;
#124=DIRECTION('Axis2P3D Direction',(0.,-1.,0.)) ;
#125=DIRECTION('Axis2P3D XDirection',(0.,0.,-1.)) ;
#129=DIRECTION('Vector Direction',(1.,0.,0.)) ;
#138=DIRECTION('Vector Direction',(0.,0.,-1.)) ;
#143=DIRECTION('Vector Direction',(0.,0.,-1.)) ;
#155=DIRECTION('Axis2P3D Direction',(0.,-1.,0.)) ;
#156=DIRECTION('Axis2P3D XDirection',(0.,0.,-1.)) ;
#160=DIRECTION('Vector Direction',(1.,0.,0.)) ;
#169=DIRECTION('Vector Direction',(0.,0.,-1.)) ;
#176=DIRECTION('Vector Direction',(1.,0.,0.)) ;
#183=DIRECTION('Vector Direction',(0.,0.,-1.)) ;
#195=DIRECTION('Axis2P3D Direction',(0.,0.,-1.)) ;
#196=DIRECTION('Axis2P3D XDirection',(0.,1.,0.)) ;
#200=DIRECTION('Vector Direction',(0.,1.,0.)) ;
#207=DIRECTION('Vector Direction',(1.,0.,0.)) ;
#214=DIRECTION('Vector Direction',(0.,1.,0.)) ;
#226=DIRECTION('Axis2P3D Direction',(-0.,0.,1.)) ;
#227=DIRECTION('Axis2P3D XDirection',(0.,-1.,0.)) ;
#231=DIRECTION('Vector Direction',(1.,0.,0.)) ;
#240=DIRECTION('Vector Direction',(0.,-1.,0.)) ;
#245=DIRECTION('Vector Direction',(0.,-1.,0.)) ;
#257=DIRECTION('Axis2P3D Direction',(1.,0.,-0.)) ;
#258=DIRECTION('Axis2P3D XDirection',(0.,0.,1.)) ;
#262=DIRECTION('Axis2P3D Direction',(1.,0.,-0.)) ;
#269=DIRECTION('Vector Direction',(1.,0.,0.)) ;
#276=DIRECTION('Axis2P3D Direction',(1.,0.,-0.)) ;
#288=DIRECTION('Axis2P3D Direction',(0.,0.,-1.)) ;
#289=DIRECTION('Axis2P3D XDirection',(0.,1.,0.)) ;
#293=DIRECTION('Vector Direction',(1.,0.,0.)) ;
#302=DIRECTION('Vector Direction',(0.,1.,0.)) ;
#307=DIRECTION('Vector Direction',(0.,1.,0.)) ;
#319=DIRECTION('Axis2P3D Direction',(0.,-1.,0.)) ;
#320=DIRECTION('Axis2P3D XDirection',(0.,0.,-1.)) ;
#324=DIRECTION('Vector Direction',(1.,0.,0.)) ;
#333=DIRECTION('Vector Direction',(0.,0.,-1.)) ;
#338=DIRECTION('Vector Direction',(0.,0.,-1.)) ;
#350=DIRECTION('Axis2P3D Direction',(1.,0.,0.)) ;
#351=DIRECTION('Axis2P3D XDirection',(0.,-1.,0.)) ;
#355=DIRECTION('Axis2P3D Direction',(1.,0.,0.)) ;
#360=DIRECTION('Axis2P3D Direction',(1.,0.,0.)) ;
#372=DIRECTION('Axis2P3D Direction',(1.,0.,0.)) ;
#373=DIRECTION('Axis2P3D XDirection',(0.,1.,0.)) ;
#377=DIRECTION('Axis2P3D Direction',(1.,0.,0.)) ;
#386=DIRECTION('Vector Direction',(0.,-1.,0.)) ;
#391=DIRECTION('Vector Direction',(0.,0.,-1.)) ;
#412=DIRECTION('Axis2P3D Direction',(1.,0.,0.)) ;
#413=DIRECTION('Axis2P3D XDirection',(0.,1.,0.)) ;
#417=DIRECTION('Vector Direction',(0.,0.,-1.)) ;
#424=DIRECTION('Vector Direction',(0.,-1.,0.)) ;
#431=DIRECTION('Axis2P3D Direction',(1.,0.,0.)) ;
#452=DIRECTION('Axis2P3D Direction',(-0.,0.,1.)) ;
#453=DIRECTION('Axis2P3D XDirection',(0.,-1.,0.)) ;
#457=DIRECTION('Vector Direction',(1.,0.,0.)) ;
#469=DIRECTION('Vector Direction',(1.,0.,0.)) ;
#481=DIRECTION('Axis2P3D Direction',(1.,0.,-0.)) ;
#482=DIRECTION('Axis2P3D XDirection',(0.,0.,1.)) ;
#48=AXIS2_PLACEMENT_3D(' ',#47,$,$) ;
#55=AXIS2_PLACEMENT_3D('Plane Axis2P3D',#52,#53,#54) ;
#95=AXIS2_PLACEMENT_3D('Plane Axis2P3D',#92,#93,#94) ;
#126=AXIS2_PLACEMENT_3D('Plane Axis2P3D',#123,#124,#125) ;
#157=AXIS2_PLACEMENT_3D('Plane Axis2P3D',#154,#155,#156) ;
#197=AXIS2_PLACEMENT_3D('Plane Axis2P3D',#194,#195,#196) ;
#228=AXIS2_PLACEMENT_3D('Plane Axis2P3D',#225,#226,#227) ;
#259=AXIS2_PLACEMENT_3D('Cylinder Axis2P3D',#256,#257,#258) ;
#263=AXIS2_PLACEMENT_3D('Circle Axis2P3D',#261,#262,$) ;
#277=AXIS2_PLACEMENT_3D('Circle Axis2P3D',#275,#276,$) ;
#290=AXIS2_PLACEMENT_3D('Plane Axis2P3D',#287,#288,#289) ;
#321=AXIS2_PLACEMENT_3D('Plane Axis2P3D',#318,#319,#320) ;
#352=AXIS2_PLACEMENT_3D('Cylinder Axis2P3D',#349,#350,#351) ;
#356=AXIS2_PLACEMENT_3D('Circle Axis2P3D',#354,#355,$) ;
#361=AXIS2_PLACEMENT_3D('Circle Axis2P3D',#359,#360,$) ;
#374=AXIS2_PLACEMENT_3D('Plane Axis2P3D',#371,#372,#373) ;
#378=AXIS2_PLACEMENT_3D('Circle Axis2P3D',#376,#377,$) ;
#414=AXIS2_PLACEMENT_3D('Plane Axis2P3D',#411,#412,#413) ;
#432=AXIS2_PLACEMENT_3D('Circle Axis2P3D',#430,#431,$) ;
#454=AXIS2_PLACEMENT_3D('Plane Axis2P3D',#451,#452,#453) ;
#483=AXIS2_PLACEMENT_3D('Cylinder Axis2P3D',#480,#481,#482) ;
#40=PRODUCT_DEFINITION_SHAPE(' ',' ',#14) ;
#31=APPROVAL_PERSON_ORGANIZATION(#25,#21,#19) ;
#25=PERSON_AND_ORGANIZATION(#22,#23) ;
#22=PERSON(' ',' ',' ',$,$,$) ;
#23=ORGANIZATION(' ',' ',' ') ;
#21=APPROVAL(#20,' ') ;
#20=APPROVAL_STATUS('not_yet_approved') ;
#19=APPROVAL_ROLE('APPROVER') ;
#13=DATE_AND_TIME(#11,#12) ;
#12=LOCAL_TIME(16,52,25.,#10) ;
#10=COORDINATED_UNIVERSAL_TIME_OFFSET(0,0,.AHEAD.) ;
#86=ORIENTED_EDGE('',*,*,#65,.F.) ;
#87=ORIENTED_EDGE('',*,*,#72,.T.) ;
#88=ORIENTED_EDGE('',*,*,#79,.T.) ;
#89=ORIENTED_EDGE('',*,*,#84,.F.) ;
#117=ORIENTED_EDGE('',*,*,#105,.F.) ;
#118=ORIENTED_EDGE('',*,*,#110,.T.) ;
#119=ORIENTED_EDGE('',*,*,#65,.T.) ;
#120=ORIENTED_EDGE('',*,*,#115,.F.) ;
#148=ORIENTED_EDGE('',*,*,#136,.F.) ;
#149=ORIENTED_EDGE('',*,*,#141,.T.) ;
#150=ORIENTED_EDGE('',*,*,#105,.T.) ;
#151=ORIENTED_EDGE('',*,*,#146,.F.) ;
#188=ORIENTED_EDGE('',*,*,#167,.F.) ;
#189=ORIENTED_EDGE('',*,*,#174,.T.) ;
#190=ORIENTED_EDGE('',*,*,#181,.T.) ;
#191=ORIENTED_EDGE('',*,*,#186,.F.) ;
#219=ORIENTED_EDGE('',*,*,#79,.F.) ;
#220=ORIENTED_EDGE('',*,*,#205,.T.) ;
#221=ORIENTED_EDGE('',*,*,#212,.T.) ;
#222=ORIENTED_EDGE('',*,*,#217,.F.) ;
#250=ORIENTED_EDGE('',*,*,#238,.T.) ;
#251=ORIENTED_EDGE('',*,*,#243,.T.) ;
#252=ORIENTED_EDGE('',*,*,#136,.T.) ;
#253=ORIENTED_EDGE('',*,*,#248,.F.) ;
#281=ORIENTED_EDGE('',*,*,#238,.F.) ;
#282=ORIENTED_EDGE('',*,*,#267,.F.) ;
#283=ORIENTED_EDGE('',*,*,#274,.T.) ;
#284=ORIENTED_EDGE('',*,*,#279,.F.) ;
#312=ORIENTED_EDGE('',*,*,#300,.F.) ;
#313=ORIENTED_EDGE('',*,*,#305,.F.) ;
#314=ORIENTED_EDGE('',*,*,#181,.F.) ;
#315=ORIENTED_EDGE('',*,*,#310,.T.) ;
#343=ORIENTED_EDGE('',*,*,#331,.T.) ;
#344=ORIENTED_EDGE('',*,*,#336,.T.) ;
#345=ORIENTED_EDGE('',*,*,#274,.F.) ;
#346=ORIENTED_EDGE('',*,*,#341,.F.) ;
#365=ORIENTED_EDGE('',*,*,#331,.F.) ;
#366=ORIENTED_EDGE('',*,*,#358,.F.) ;
#367=ORIENTED_EDGE('',*,*,#300,.T.) ;
#368=ORIENTED_EDGE('',*,*,#363,.F.) ;
#396=ORIENTED_EDGE('',*,*,#384,.T.) ;
#397=ORIENTED_EDGE('',*,*,#389,.T.) ;
#398=ORIENTED_EDGE('',*,*,#186,.T.) ;
#399=ORIENTED_EDGE('',*,*,#305,.T.) ;
#400=ORIENTED_EDGE('',*,*,#358,.T.) ;
#401=ORIENTED_EDGE('',*,*,#341,.T.) ;
#402=ORIENTED_EDGE('',*,*,#267,.T.) ;
#403=ORIENTED_EDGE('',*,*,#248,.T.) ;
#404=ORIENTED_EDGE('',*,*,#146,.T.) ;
#405=ORIENTED_EDGE('',*,*,#115,.T.) ;
#406=ORIENTED_EDGE('',*,*,#84,.T.) ;
#407=ORIENTED_EDGE('',*,*,#217,.T.) ;
#408=ORIENTED_EDGE('',*,*,#394,.T.) ;
#436=ORIENTED_EDGE('',*,*,#422,.F.) ;
#437=ORIENTED_EDGE('',*,*,#205,.F.) ;
#438=ORIENTED_EDGE('',*,*,#72,.F.) ;
#439=ORIENTED_EDGE('',*,*,#110,.F.) ;
#440=ORIENTED_EDGE('',*,*,#141,.F.) ;
#441=ORIENTED_EDGE('',*,*,#243,.F.) ;
#442=ORIENTED_EDGE('',*,*,#279,.T.) ;
#443=ORIENTED_EDGE('',*,*,#336,.F.) ;
#444=ORIENTED_EDGE('',*,*,#363,.T.) ;
#445=ORIENTED_EDGE('',*,*,#310,.F.) ;
#446=ORIENTED_EDGE('',*,*,#174,.F.) ;
#447=ORIENTED_EDGE('',*,*,#429,.F.) ;
#448=ORIENTED_EDGE('',*,*,#434,.T.) ;
#462=ORIENTED_EDGE('',*,*,#460,.T.) ;
#463=ORIENTED_EDGE('',*,*,#429,.T.) ;
#464=ORIENTED_EDGE('',*,*,#167,.T.) ;
#465=ORIENTED_EDGE('',*,*,#389,.F.) ;
#474=ORIENTED_EDGE('',*,*,#472,.F.) ;
#475=ORIENTED_EDGE('',*,*,#394,.F.) ;
#476=ORIENTED_EDGE('',*,*,#212,.F.) ;
#477=ORIENTED_EDGE('',*,*,#422,.T.) ;
#486=ORIENTED_EDGE('',*,*,#460,.F.) ;
#487=ORIENTED_EDGE('',*,*,#384,.F.) ;
#488=ORIENTED_EDGE('',*,*,#472,.T.) ;
#489=ORIENTED_EDGE('',*,*,#434,.F.) ;
#51=CLOSED_SHELL('Closed Shell',(#91,#122,#153,#193,#224,#255,#286,#317,#348,#370,#410,#450,#467,#479,#491)) ;
#59=VECTOR('Line Direction',#58,1.) ;
#68=VECTOR('Line Direction',#67,1.) ;
#75=VECTOR('Line Direction',#74,1.) ;
#82=VECTOR('Line Direction',#81,1.) ;
#99=VECTOR('Line Direction',#98,1.) ;
#108=VECTOR('Line Direction',#107,1.) ;
#113=VECTOR('Line Direction',#112,1.) ;
#130=VECTOR('Line Direction',#129,1.) ;
#139=VECTOR('Line Direction',#138,1.) ;
#144=VECTOR('Line Direction',#143,1.) ;
#161=VECTOR('Line Direction',#160,1.) ;
#170=VECTOR('Line Direction',#169,1.) ;
#177=VECTOR('Line Direction',#176,1.) ;
#184=VECTOR('Line Direction',#183,1.) ;
#201=VECTOR('Line Direction',#200,1.) ;
#208=VECTOR('Line Direction',#207,1.) ;
#215=VECTOR('Line Direction',#214,1.) ;
#232=VECTOR('Line Direction',#231,1.) ;
#241=VECTOR('Line Direction',#240,1.) ;
#246=VECTOR('Line Direction',#245,1.) ;
#270=VECTOR('Line Direction',#269,1.) ;
#294=VECTOR('Line Direction',#293,1.) ;
#303=VECTOR('Line Direction',#302,1.) ;
#308=VECTOR('Line Direction',#307,1.) ;
#325=VECTOR('Line Direction',#324,1.) ;
#334=VECTOR('Line Direction',#333,1.) ;
#339=VECTOR('Line Direction',#338,1.) ;
#387=VECTOR('Line Direction',#386,1.) ;
#392=VECTOR('Line Direction',#391,1.) ;
#418=VECTOR('Line Direction',#417,1.) ;
#425=VECTOR('Line Direction',#424,1.) ;
#458=VECTOR('Line Direction',#457,1.) ;
#470=VECTOR('Line Direction',#469,1.) ;
#493=ADVANCED_BREP_SHAPE_REPRESENTATION('NONE',(#492),#46) ;
#49=SHAPE_REPRESENTATION(' ',(#48),#46) ;
#91=ADVANCED_FACE('Corps principal',(#90),#56,.F.) ;
#122=ADVANCED_FACE('Corps principal',(#121),#96,.F.) ;
#153=ADVANCED_FACE('Corps principal',(#152),#127,.F.) ;
#193=ADVANCED_FACE('Corps principal',(#192),#158,.F.) ;
#224=ADVANCED_FACE('Corps principal',(#223),#198,.T.) ;
#255=ADVANCED_FACE('Corps principal',(#254),#229,.F.) ;
#286=ADVANCED_FACE('Corps principal',(#285),#260,.F.) ;
#317=ADVANCED_FACE('Corps principal',(#316),#291,.F.) ;
#348=ADVANCED_FACE('Corps principal',(#347),#322,.F.) ;
#370=ADVANCED_FACE('Corps principal',(#369),#353,.F.) ;
#410=ADVANCED_FACE('Corps principal',(#409),#375,.T.) ;
#450=ADVANCED_FACE('Corps principal',(#449),#415,.F.) ;
#467=ADVANCED_FACE('Corps principal',(#466),#455,.F.) ;
#479=ADVANCED_FACE('Corps principal',(#478),#322,.F.) ;
#491=ADVANCED_FACE('Corps principal',(#490),#484,.F.) ;
#4=APPLICATION_PROTOCOL_DEFINITION('international standard','config_control_design',1994,#1) ;
#32=APPROVAL_DATE_TIME(#13,#21) ;
#492=MANIFOLD_SOLID_BREP('Corps principal',#51) ;
#11=CALENDAR_DATE(2020,30,9) ;
#30=CC_DESIGN_APPROVAL(#21,(#16,#6,#14)) ;
#18=CC_DESIGN_DATE_AND_TIME_ASSIGNMENT(#13,#17,(#16)) ;
#29=CC_DESIGN_DATE_AND_TIME_ASSIGNMENT(#13,#28,(#14)) ;
#17=DATE_TIME_ROLE('classification_date') ;
#28=DATE_TIME_ROLE('creation_date') ;
#27=CC_DESIGN_PERSON_AND_ORGANIZATION_ASSIGNMENT(#25,#26,(#16)) ;
#33=CC_DESIGN_PERSON_AND_ORGANIZATION_ASSIGNMENT(#25,#34,(#6)) ;
#35=CC_DESIGN_PERSON_AND_ORGANIZATION_ASSIGNMENT(#25,#36,(#6,#14)) ;
#37=CC_DESIGN_PERSON_AND_ORGANIZATION_ASSIGNMENT(#25,#38,(#5)) ;
#26=PERSON_AND_ORGANIZATION_ROLE('classification_officer') ;
#34=PERSON_AND_ORGANIZATION_ROLE('design_supplier') ;
#36=PERSON_AND_ORGANIZATION_ROLE('creator') ;
#38=PERSON_AND_ORGANIZATION_ROLE('design_owner') ;
#39=CC_DESIGN_SECURITY_CLASSIFICATION(#16,(#6)) ;
#264=CIRCLE('generated circle',#263,0.2) ;
#278=CIRCLE('generated circle',#277,0.2) ;
#357=CIRCLE('generated circle',#356,0.2) ;
#362=CIRCLE('generated circle',#361,0.2) ;
#379=CIRCLE('generated circle',#378,0.2) ;
#433=CIRCLE('generated circle',#432,0.2) ;
#494=SHAPE_REPRESENTATION_RELATIONSHIP(' ',' ',#49,#493) ;
#260=CYLINDRICAL_SURFACE('generated cylinder',#259,0.2) ;
#353=CYLINDRICAL_SURFACE('generated cylinder',#352,0.2) ;
#484=CYLINDRICAL_SURFACE('generated cylinder',#483,0.2) ;
#3=DESIGN_CONTEXT(' ',#1,'design') ;
#65=EDGE_CURVE('',#62,#64,#60,.T.) ;
#72=EDGE_CURVE('',#62,#71,#69,.F.) ;
#79=EDGE_CURVE('',#71,#78,#76,.T.) ;
#84=EDGE_CURVE('',#64,#78,#83,.F.) ;
#105=EDGE_CURVE('',#102,#104,#100,.T.) ;
#110=EDGE_CURVE('',#102,#62,#109,.F.) ;
#115=EDGE_CURVE('',#104,#64,#114,.F.) ;
#136=EDGE_CURVE('',#133,#135,#131,.T.) ;
#141=EDGE_CURVE('',#133,#102,#140,.F.) ;
#146=EDGE_CURVE('',#135,#104,#145,.F.) ;
#167=EDGE_CURVE('',#164,#166,#162,.T.) ;
#174=EDGE_CURVE('',#164,#173,#171,.F.) ;
#181=EDGE_CURVE('',#173,#180,#178,.T.) ;
#186=EDGE_CURVE('',#166,#180,#185,.F.) ;
#205=EDGE_CURVE('',#71,#204,#202,.T.) ;
#212=EDGE_CURVE('',#204,#211,#209,.T.) ;
#217=EDGE_CURVE('',#78,#211,#216,.T.) ;
#238=EDGE_CURVE('',#235,#237,#233,.F.) ;
#243=EDGE_CURVE('',#237,#133,#242,.F.) ;
#248=EDGE_CURVE('',#235,#135,#247,.F.) ;
#267=EDGE_CURVE('',#266,#235,#264,.F.) ;
#274=EDGE_CURVE('',#266,#273,#271,.F.) ;
#279=EDGE_CURVE('',#237,#273,#278,.T.) ;
#300=EDGE_CURVE('',#297,#299,#295,.F.) ;
#305=EDGE_CURVE('',#180,#297,#304,.F.) ;
#310=EDGE_CURVE('',#173,#299,#309,.F.) ;
#331=EDGE_CURVE('',#328,#330,#326,.F.) ;
#336=EDGE_CURVE('',#330,#273,#335,.F.) ;
#341=EDGE_CURVE('',#328,#266,#340,.F.) ;
#358=EDGE_CURVE('',#297,#328,#357,.F.) ;
#363=EDGE_CURVE('',#330,#299,#362,.T.) ;
#384=EDGE_CURVE('',#381,#383,#379,.F.) ;
#389=EDGE_CURVE('',#383,#166,#388,.F.) ;
#394=EDGE_CURVE('',#211,#381,#393,.F.) ;
#422=EDGE_CURVE('',#204,#421,#419,.F.) ;
#429=EDGE_CURVE('',#428,#164,#426,.F.) ;
#434=EDGE_CURVE('',#428,#421,#433,.T.) ;
#460=EDGE_CURVE('',#383,#428,#459,.F.) ;
#472=EDGE_CURVE('',#381,#421,#471,.F.) ;
#85=EDGE_LOOP('',(#86,#87,#88,#89)) ;
#116=EDGE_LOOP('',(#117,#118,#119,#120)) ;
#147=EDGE_LOOP('',(#148,#149,#150,#151)) ;
#187=EDGE_LOOP('',(#188,#189,#190,#191)) ;
#218=EDGE_LOOP('',(#219,#220,#221,#222)) ;
#249=EDGE_LOOP('',(#250,#251,#252,#253)) ;
#280=EDGE_LOOP('',(#281,#282,#283,#284)) ;
#311=EDGE_LOOP('',(#312,#313,#314,#315)) ;
#342=EDGE_LOOP('',(#343,#344,#345,#346)) ;
#364=EDGE_LOOP('',(#365,#366,#367,#368)) ;
#395=EDGE_LOOP('',(#396,#397,#398,#399,#400,#401,#402,#403,#404,#405,#406,#407,#408)) ;
#435=EDGE_LOOP('',(#436,#437,#438,#439,#440,#441,#442,#443,#444,#445,#446,#447,#448)) ;
#461=EDGE_LOOP('',(#462,#463,#464,#465)) ;
#473=EDGE_LOOP('',(#474,#475,#476,#477)) ;
#485=EDGE_LOOP('',(#486,#487,#488,#489)) ;
#90=FACE_OUTER_BOUND('',#85,.T.) ;
#121=FACE_OUTER_BOUND('',#116,.T.) ;
#152=FACE_OUTER_BOUND('',#147,.T.) ;
#192=FACE_OUTER_BOUND('',#187,.T.) ;
#223=FACE_OUTER_BOUND('',#218,.T.) ;
#254=FACE_OUTER_BOUND('',#249,.T.) ;
#285=FACE_OUTER_BOUND('',#280,.T.) ;
#316=FACE_OUTER_BOUND('',#311,.T.) ;
#347=FACE_OUTER_BOUND('',#342,.T.) ;
#369=FACE_OUTER_BOUND('',#364,.T.) ;
#409=FACE_OUTER_BOUND('',#395,.T.) ;
#449=FACE_OUTER_BOUND('',#435,.T.) ;
#466=FACE_OUTER_BOUND('',#461,.T.) ;
#478=FACE_OUTER_BOUND('',#473,.T.) ;
#490=FACE_OUTER_BOUND('',#485,.T.) ;
#45=UNCERTAINTY_MEASURE_WITH_UNIT(LENGTH_MEASURE(0.005),#41,'distance_accuracy_value','CONFUSED CURVE UNCERTAINTY') ;
#60=LINE('Line',#57,#59) ;
#69=LINE('Line',#66,#68) ;
#76=LINE('Line',#73,#75) ;
#83=LINE('Line',#80,#82) ;
#100=LINE('Line',#97,#99) ;
#109=LINE('Line',#106,#108) ;
#114=LINE('Line',#111,#113) ;
#131=LINE('Line',#128,#130) ;
#140=LINE('Line',#137,#139) ;
#145=LINE('Line',#142,#144) ;
#162=LINE('Line',#159,#161) ;
#171=LINE('Line',#168,#170) ;
#178=LINE('Line',#175,#177) ;
#185=LINE('Line',#182,#184) ;
#202=LINE('Line',#199,#201) ;
#209=LINE('Line',#206,#208) ;
#216=LINE('Line',#213,#215) ;
#233=LINE('Line',#230,#232) ;
#242=LINE('Line',#239,#241) ;
#247=LINE('Line',#244,#246) ;
#271=LINE('Line',#268,#270) ;
#295=LINE('Line',#292,#294) ;
#304=LINE('Line',#301,#303) ;
#309=LINE('Line',#306,#308) ;
#326=LINE('Line',#323,#325) ;
#335=LINE('Line',#332,#334) ;
#340=LINE('Line',#337,#339) ;
#388=LINE('Line',#385,#387) ;
#393=LINE('Line',#390,#392) ;
#419=LINE('Line',#416,#418) ;
#426=LINE('Line',#423,#425) ;
#459=LINE('Line',#456,#458) ;
#471=LINE('Line',#468,#470) ;
#2=MECHANICAL_CONTEXT(' ',#1,'mechanical') ;
#24=PERSONAL_ADDRESS(' ',' ',' ',' ',' ',' ',' ',' ',' ',' ',' ',' ',(#22),' ') ;
#56=PLANE('Plane',#55) ;
#96=PLANE('Plane',#95) ;
#127=PLANE('Plane',#126) ;
#158=PLANE('Plane',#157) ;
#198=PLANE('Plane',#197) ;
#229=PLANE('Plane',#228) ;
#291=PLANE('Plane',#290) ;
#322=PLANE('Plane',#321) ;
#375=PLANE('Plane',#374) ;
#415=PLANE('Plane',#414) ;
#455=PLANE('Plane',#454) ;
#43=PLANE_ANGLE_MEASURE_WITH_UNIT(PLANE_ANGLE_MEASURE(0.0174532925199),#42) ;
#7=PRODUCT_CATEGORY('part',$) ;
#9=PRODUCT_CATEGORY_RELATIONSHIP(' ',' ',#7,#8) ;
#6=PRODUCT_DEFINITION_FORMATION_WITH_SPECIFIED_SOURCE('',' ',#5,.NOT_KNOWN.) ;
#8=PRODUCT_RELATED_PRODUCT_CATEGORY('detail',$,(#5)) ;
#50=SHAPE_DEFINITION_REPRESENTATION(#40,#49) ;
#62=VERTEX_POINT('',#61) ;
#64=VERTEX_POINT('',#63) ;
#71=VERTEX_POINT('',#70) ;
#78=VERTEX_POINT('',#77) ;
#102=VERTEX_POINT('',#101) ;
#104=VERTEX_POINT('',#103) ;
#133=VERTEX_POINT('',#132) ;
#135=VERTEX_POINT('',#134) ;
#164=VERTEX_POINT('',#163) ;
#166=VERTEX_POINT('',#165) ;
#173=VERTEX_POINT('',#172) ;
#180=VERTEX_POINT('',#179) ;
#204=VERTEX_POINT('',#203) ;
#211=VERTEX_POINT('',#210) ;
#235=VERTEX_POINT('',#234) ;
#237=VERTEX_POINT('',#236) ;
#266=VERTEX_POINT('',#265) ;
#273=VERTEX_POINT('',#272) ;
#297=VERTEX_POINT('',#296) ;
#299=VERTEX_POINT('',#298) ;
#328=VERTEX_POINT('',#327) ;
#330=VERTEX_POINT('',#329) ;
#381=VERTEX_POINT('',#380) ;
#383=VERTEX_POINT('',#382) ;
#421=VERTEX_POINT('',#420) ;
#428=VERTEX_POINT('',#427) ;
#41=(LENGTH_UNIT()NAMED_UNIT(*)SI_UNIT(.MILLI.,.METRE.)) ;
#42=(NAMED_UNIT(*)PLANE_ANGLE_UNIT()SI_UNIT($,.RADIAN.)) ;
#44=(NAMED_UNIT(*)SI_UNIT($,.STERADIAN.)SOLID_ANGLE_UNIT()) ;
#46=(GEOMETRIC_REPRESENTATION_CONTEXT(3)GLOBAL_UNCERTAINTY_ASSIGNED_CONTEXT((#45))GLOBAL_UNIT_ASSIGNED_CONTEXT((#41,#42,#44))REPRESENTATION_CONTEXT(' ',' ')) ;
ENDSEC;
END-ISO-10303-21;
