ISO-10303-21;
HEADER;
FILE_DESCRIPTION (( 'STEP AP214' ),
    '1' );
FILE_NAME ('Cône pneu 8x.STEP',
    '2020-09-07T12:01:02',
    ( '' ),
    ( '' ),
    'SwSTEP 2.0',
    'SolidWorks 2018',
    '' );
FILE_SCHEMA (( 'AUTOMOTIVE_DESIGN' ));
ENDSEC;

DATA;
#1 = FACE_OUTER_BOUND ( 'NONE', #122, .T. ) ;
#2 = ADVANCED_BREP_SHAPE_REPRESENTATION ( 'C¶ne pneu 8x', ( #104, #229 ), #196 ) ;
#3 = ORIENTED_EDGE ( 'NONE', *, *, #186, .T. ) ;
#4 = AXIS2_PLACEMENT_3D ( 'NONE', #197, #58, #14 ) ;
#5 = FACE_OUTER_BOUND ( 'NONE', #204, .T. ) ;
#6 = PRODUCT_RELATED_PRODUCT_CATEGORY ( 'part', '', ( #48 ) ) ;
#7 = EDGE_CURVE ( 'NONE', #28, #52, #62, .T. ) ;
#8 = CARTESIAN_POINT ( 'NONE',  ( 0.0000000000000000000, 48.70999999999999375, 0.0000000000000000000 ) ) ;
#9 = FACE_OUTER_BOUND ( 'NONE', #167, .T. ) ;
#10 =( NAMED_UNIT ( * ) SI_UNIT ( $, .STERADIAN. ) SOLID_ANGLE_UNIT ( ) );
#11 = CARTESIAN_POINT ( 'NONE',  ( 0.0000000000000000000, 48.70999999999999375, 0.0000000000000000000 ) ) ;
#12 = DIRECTION ( 'NONE',  ( 0.0000000000000000000, 0.0000000000000000000, -1.000000000000000000 ) ) ;
#13 =( NAMED_UNIT ( * ) PLANE_ANGLE_UNIT ( ) SI_UNIT ( $, .RADIAN. ) );
#14 = DIRECTION ( 'NONE',  ( 0.0000000000000000000, 0.0000000000000000000, 1.000000000000000000 ) ) ;
#15 = DIRECTION ( 'NONE',  ( 0.0000000000000000000, 1.000000000000000000, 0.0000000000000000000 ) ) ;
#16 = VERTEX_POINT ( 'NONE', #175 ) ;
#17 = DIRECTION ( 'NONE',  ( 0.0000000000000000000, 0.0000000000000000000, -1.000000000000000000 ) ) ;
#18 = ADVANCED_FACE ( 'NONE', ( #5 ), #250, .T. ) ;
#19 = VERTEX_POINT ( 'NONE', #92 ) ;
#20 = DIRECTION ( 'NONE',  ( 1.000000000000000000, 0.0000000000000000000, 0.0000000000000000000 ) ) ;
#21 = AXIS2_PLACEMENT_3D ( 'NONE', #241, #194, #36 ) ;
#22 = ORIENTED_EDGE ( 'NONE', *, *, #116, .F. ) ;
#23 = VECTOR ( 'NONE', #56, 1000.000000000000000 ) ;
#24 = UNCERTAINTY_MEASURE_WITH_UNIT (LENGTH_MEASURE( 1.000000000000000082E-05 ), #97, 'distance_accuracy_value', 'NONE');
#25 = ORIENTED_EDGE ( 'NONE', *, *, #172, .T. ) ;
#26 = CARTESIAN_POINT ( 'NONE',  ( 55.94499999999998607, 50.74000000000000199, 0.0000000000000000000 ) ) ;
#27 = CARTESIAN_POINT ( 'NONE',  ( 0.0000000000000000000, 48.70999999999999375, 62.19499999999998607 ) ) ;
#28 = VERTEX_POINT ( 'NONE', #177 ) ;
#29 =( LENGTH_UNIT ( ) NAMED_UNIT ( * ) SI_UNIT ( .MILLI., .METRE. ) );
#30 = DIRECTION ( 'NONE',  ( -0.0000000000000000000, -1.000000000000000000, -0.0000000000000000000 ) ) ;
#31 = AXIS2_PLACEMENT_3D ( 'NONE', #237, #120, #170 ) ;
#32 = PRODUCT_DEFINITION_CONTEXT ( 'detailed design', #85, 'design' ) ;
#33 = FILL_AREA_STYLE_COLOUR ( '', #79 ) ;
#34 = CARTESIAN_POINT ( 'NONE',  ( 62.19499999999998607, 48.70999999999999375, 0.0000000000000000000 ) ) ;
#35 = DIRECTION ( 'NONE',  ( -0.0000000000000000000, -1.000000000000000000, -0.0000000000000000000 ) ) ;
#36 = DIRECTION ( 'NONE',  ( 0.0000000000000000000, 0.0000000000000000000, -1.000000000000000000 ) ) ;
#37 = CARTESIAN_POINT ( 'NONE',  ( 6.851286517829865721E-15, 48.70999999999999375, 55.94499999999998607 ) ) ;
#38 = FILL_AREA_STYLE_COLOUR ( '', #185 ) ;
#39 = CARTESIAN_POINT ( 'NONE',  ( 0.0000000000000000000, 0.0000000000000000000, 0.0000000000000000000 ) ) ;
#40 = ORIENTED_EDGE ( 'NONE', *, *, #276, .T. ) ;
#41 = EDGE_LOOP ( 'NONE', ( #84, #25 ) ) ;
#42 = CYLINDRICAL_SURFACE ( 'NONE', #121, 55.94499999999998607 ) ;
#43 = VECTOR ( 'NONE', #263, 1000.000000000000000 ) ;
#44 = ORIENTED_EDGE ( 'NONE', *, *, #190, .T. ) ;
#45 = VECTOR ( 'NONE', #142, 1000.000000000000000 ) ;
#46 = ORIENTED_EDGE ( 'NONE', *, *, #131, .F. ) ;
#47 = EDGE_CURVE ( 'NONE', #227, #19, #66, .T. ) ;
#48 = PRODUCT ( 'Cône pneu 8x', 'Cône pneu 8x', '', ( #161 ) ) ;
#49 = FACE_BOUND ( 'NONE', #202, .T. ) ;
#50 = LINE ( 'NONE', #140, #45 ) ;
#51 = UNCERTAINTY_MEASURE_WITH_UNIT (LENGTH_MEASURE( 1.000000000000000082E-05 ), #29, 'distance_accuracy_value', 'NONE');
#52 = VERTEX_POINT ( 'NONE', #37 ) ;
#53 = PLANE ( 'NONE',  #31 ) ;
#54 = DIRECTION ( 'NONE',  ( 0.0000000000000000000, 0.0000000000000000000, -1.000000000000000000 ) ) ;
#55 = DIRECTION ( 'NONE',  ( 0.0000000000000000000, 0.0000000000000000000, -1.000000000000000000 ) ) ;
#56 = DIRECTION ( 'NONE',  ( -0.0000000000000000000, -1.000000000000000000, -0.0000000000000000000 ) ) ;
#57 = CIRCLE ( 'NONE', #87, 54.95499999999999119 ) ;
#58 = DIRECTION ( 'NONE',  ( 0.0000000000000000000, 1.000000000000000000, 0.0000000000000000000 ) ) ;
#59 = CARTESIAN_POINT ( 'NONE',  ( 0.0000000000000000000, 0.0000000000000000000, 0.0000000000000000000 ) ) ;
#60 = ORIENTED_EDGE ( 'NONE', *, *, #184, .F. ) ;
#61 = STYLED_ITEM ( 'NONE', ( #114 ), #104 ) ;
#62 = CIRCLE ( 'NONE', #113, 55.94499999999998607 ) ;
#63 = AXIS2_PLACEMENT_3D ( 'NONE', #191, #169, #54 ) ;
#64 = VERTEX_POINT ( 'NONE', #76 ) ;
#65 = APPLICATION_PROTOCOL_DEFINITION ( 'draft international standard', 'automotive_design', 1998, #85 ) ;
#66 = LINE ( 'NONE', #222, #130 ) ;
#67 = ADVANCED_FACE ( 'NONE', ( #9 ), #72, .T. ) ;
#68 = STYLED_ITEM ( 'NONE', ( #293 ), #2 ) ;
#69 = ORIENTED_EDGE ( 'NONE', *, *, #262, .F. ) ;
#70 = DIRECTION ( 'NONE',  ( -0.0000000000000000000, -1.000000000000000000, -0.0000000000000000000 ) ) ;
#71 = DIRECTION ( 'NONE',  ( 0.0000000000000000000, 0.0000000000000000000, -1.000000000000000000 ) ) ;
#72 = CONICAL_SURFACE ( 'NONE', #4, 57.54999999999999716, 0.09507280690407070300 ) ;
#73 = CARTESIAN_POINT ( 'NONE',  ( 0.0000000000000000000, 50.74000000000000199, 0.0000000000000000000 ) ) ;
#74 = DIRECTION ( 'NONE',  ( 0.0000000000000000000, 0.0000000000000000000, -1.000000000000000000 ) ) ;
#75 = AXIS2_PLACEMENT_3D ( 'NONE', #137, #213, #71 ) ;
#76 = CARTESIAN_POINT ( 'NONE',  ( 6.730046484714279722E-15, 0.0000000000000000000, 54.95500000000000540 ) ) ;
#77 = AXIS2_PLACEMENT_3D ( 'NONE', #73, #212, #99 ) ;
#78 = EDGE_LOOP ( 'NONE', ( #40, #268 ) ) ;
#79 = COLOUR_RGB ( '',0.7921568627450980005, 0.8196078431372548767, 0.9333333333333333481 ) ;
#80 = DIRECTION ( 'NONE',  ( -0.0000000000000000000, -1.000000000000000000, -0.0000000000000000000 ) ) ;
#81 = UNCERTAINTY_MEASURE_WITH_UNIT (LENGTH_MEASURE( 1.000000000000000082E-05 ), #256, 'distance_accuracy_value', 'NONE');
#82 = ORIENTED_EDGE ( 'NONE', *, *, #149, .T. ) ;
#83 = LINE ( 'NONE', #245, #289 ) ;
#84 = ORIENTED_EDGE ( 'NONE', *, *, #180, .T. ) ;
#85 = APPLICATION_CONTEXT ( 'automotive_design' ) ;
#86 = ORIENTED_EDGE ( 'NONE', *, *, #7, .T. ) ;
#87 = AXIS2_PLACEMENT_3D ( 'NONE', #259, #141, #192 ) ;
#88 = DIRECTION ( 'NONE',  ( 0.0000000000000000000, 0.0000000000000000000, 1.000000000000000000 ) ) ;
#89 = MECHANICAL_DESIGN_GEOMETRIC_PRESENTATION_REPRESENTATION (  '', ( #68 ), #134 ) ;
#90 = CIRCLE ( 'NONE', #138, 55.94499999999998607 ) ;
#91 = VERTEX_POINT ( 'NONE', #282 ) ;
#92 = CARTESIAN_POINT ( 'NONE',  ( 7.616690767296961185E-15, 48.70999999999999375, -62.19499999999998607 ) ) ;
#93 = EDGE_LOOP ( 'NONE', ( #108, #153, #270, #69 ) ) ;
#94 = DIRECTION ( 'NONE',  ( 0.0000000000000000000, 1.000000000000000000, 0.0000000000000000000 ) ) ;
#95 = CARTESIAN_POINT ( 'NONE',  ( 6.851286517829865721E-15, 50.74000000000000199, 55.94499999999998607 ) ) ;
#96 = PLANE ( 'NONE',  #112 ) ;
#97 =( LENGTH_UNIT ( ) NAMED_UNIT ( * ) SI_UNIT ( .MILLI., .METRE. ) );
#98 = CARTESIAN_POINT ( 'NONE',  ( 0.0000000000000000000, 0.0000000000000000000, -54.95499999999999119 ) ) ;
#99 = DIRECTION ( 'NONE',  ( 0.0000000000000000000, 0.0000000000000000000, -1.000000000000000000 ) ) ;
#100 = CARTESIAN_POINT ( 'NONE',  ( 0.0000000000000000000, 0.0000000000000000000, 0.0000000000000000000 ) ) ;
#101 = CIRCLE ( 'NONE', #75, 55.94499999999998607 ) ;
#102 = DIRECTION ( 'NONE',  ( -0.0000000000000000000, -1.000000000000000000, -0.0000000000000000000 ) ) ;
#103 = LINE ( 'NONE', #260, #43 ) ;
#104 = MANIFOLD_SOLID_BREP ( 'Révolution1', #152 ) ;
#105 = EDGE_LOOP ( 'NONE', ( #135, #159 ) ) ;
#106 = CIRCLE ( 'NONE', #21, 62.19499999999998607 ) ;
#107 = DIRECTION ( 'NONE',  ( 0.0000000000000000000, 0.0000000000000000000, -1.000000000000000000 ) ) ;
#108 = ORIENTED_EDGE ( 'NONE', *, *, #133, .T. ) ;
#109 = ORIENTED_EDGE ( 'NONE', *, *, #276, .F. ) ;
#110 = AXIS2_PLACEMENT_3D ( 'NONE', #281, #70, #143 ) ;
#111 = FACE_OUTER_BOUND ( 'NONE', #41, .T. ) ;
#112 = AXIS2_PLACEMENT_3D ( 'NONE', #26, #94, #118 ) ;
#113 = AXIS2_PLACEMENT_3D ( 'NONE', #264, #124, #286 ) ;
#114 = PRESENTATION_STYLE_ASSIGNMENT (( #148 ) ) ;
#115 = PRODUCT_DEFINITION_FORMATION_WITH_SPECIFIED_SOURCE ( 'ANY', '', #48, .NOT_KNOWN. ) ;
#116 = EDGE_CURVE ( 'NONE', #226, #233, #83, .T. ) ;
#117 = ORIENTED_EDGE ( 'NONE', *, *, #249, .T. ) ;
#118 = DIRECTION ( 'NONE',  ( 0.0000000000000000000, -0.0000000000000000000, 1.000000000000000000 ) ) ;
#119 = SURFACE_STYLE_USAGE ( .BOTH. , #258 ) ;
#120 = DIRECTION ( 'NONE',  ( 0.0000000000000000000, -1.000000000000000000, -0.0000000000000000000 ) ) ;
#121 = AXIS2_PLACEMENT_3D ( 'NONE', #257, #216, #55 ) ;
#122 = EDGE_LOOP ( 'NONE', ( #272, #290, #117, #193 ) ) ;
#123 = DIRECTION ( 'NONE',  ( 0.0000000000000000000, 0.9954839838600024748, 0.09492964699301377485 ) ) ;
#124 = DIRECTION ( 'NONE',  ( -0.0000000000000000000, -1.000000000000000000, -0.0000000000000000000 ) ) ;
#125 = SURFACE_SIDE_STYLE ('',( #181 ) ) ;
#126 = DIRECTION ( 'NONE',  ( 0.0000000000000000000, 0.0000000000000000000, -1.000000000000000000 ) ) ;
#127 = EDGE_LOOP ( 'NONE', ( #86, #157 ) ) ;
#128 = EDGE_LOOP ( 'NONE', ( #279, #188 ) ) ;
#129 = PRESENTATION_LAYER_ASSIGNMENT (  '', '', ( #61 ) ) ;
#130 = VECTOR ( 'NONE', #288, 1000.000000000000114 ) ;
#131 = EDGE_CURVE ( 'NONE', #283, #64, #103, .T. ) ;
#132 = ORIENTED_EDGE ( 'NONE', *, *, #180, .F. ) ;
#133 = EDGE_CURVE ( 'NONE', #91, #252, #90, .T. ) ;
#134 =( GEOMETRIC_REPRESENTATION_CONTEXT ( 3 ) GLOBAL_UNCERTAINTY_ASSIGNED_CONTEXT ( ( #24 ) ) GLOBAL_UNIT_ASSIGNED_CONTEXT ( ( #97, #171, #178 ) ) REPRESENTATION_CONTEXT ( 'NONE', 'WORKASPACE' ) );
#135 = ORIENTED_EDGE ( 'NONE', *, *, #133, .F. ) ;
#136 = SURFACE_STYLE_FILL_AREA ( #244 ) ;
#137 = CARTESIAN_POINT ( 'NONE',  ( 0.0000000000000000000, 50.74000000000000199, 0.0000000000000000000 ) ) ;
#138 = AXIS2_PLACEMENT_3D ( 'NONE', #173, #242, #220 ) ;
#139 = FILL_AREA_STYLE ('',( #38 ) ) ;
#140 = CARTESIAN_POINT ( 'NONE',  ( 6.851286517829865721E-15, 0.0000000000000000000, 55.94499999999998607 ) ) ;
#141 = DIRECTION ( 'NONE',  ( -0.0000000000000000000, -1.000000000000000000, -0.0000000000000000000 ) ) ;
#142 = DIRECTION ( 'NONE',  ( -0.0000000000000000000, -1.000000000000000000, -0.0000000000000000000 ) ) ;
#143 = DIRECTION ( 'NONE',  ( 0.0000000000000000000, 0.0000000000000000000, -1.000000000000000000 ) ) ;
#144 = DIRECTION ( 'NONE',  ( 0.0000000000000000000, 0.0000000000000000000, -1.000000000000000000 ) ) ;
#145 = CARTESIAN_POINT ( 'NONE',  ( 6.730046484714278145E-15, 50.74000000000000199, 54.95499999999999119 ) ) ;
#146 = DIRECTION ( 'NONE',  ( 0.0000000000000000000, 1.000000000000000000, 0.0000000000000000000 ) ) ;
#147 = ORIENTED_EDGE ( 'NONE', *, *, #47, .T. ) ;
#148 = SURFACE_STYLE_USAGE ( .BOTH. , #125 ) ;
#149 = EDGE_CURVE ( 'NONE', #16, #168, #151, .T. ) ;
#150 = CARTESIAN_POINT ( 'NONE',  ( 0.0000000000000000000, 0.0000000000000000000, 0.0000000000000000000 ) ) ;
#151 = LINE ( 'NONE', #98, #23 ) ;
#152 = CLOSED_SHELL ( 'NONE', ( #162, #18, #274, #160, #187, #67, #254, #206, #275 ) ) ;
#153 = ORIENTED_EDGE ( 'NONE', *, *, #291, .T. ) ;
#154 = AXIS2_PLACEMENT_3D ( 'NONE', #11, #195, #218 ) ;
#155 = LINE ( 'NONE', #261, #243 ) ;
#156 = FACE_BOUND ( 'NONE', #127, .T. ) ;
#157 = ORIENTED_EDGE ( 'NONE', *, *, #253, .T. ) ;
#158 = AXIS2_PLACEMENT_3D ( 'NONE', #59, #80, #17 ) ;
#159 = ORIENTED_EDGE ( 'NONE', *, *, #190, .F. ) ;
#160 = ADVANCED_FACE ( 'NONE', ( #278 ), #163, .F. ) ;
#161 = PRODUCT_CONTEXT ( 'NONE', #234, 'mechanical' ) ;
#162 = ADVANCED_FACE ( 'NONE', ( #236 ), #183, .T. ) ;
#163 = CYLINDRICAL_SURFACE ( 'NONE', #205, 54.95499999999999119 ) ;
#164 = ORIENTED_EDGE ( 'NONE', *, *, #253, .F. ) ;
#165 = ORIENTED_EDGE ( 'NONE', *, *, #269, .T. ) ;
#166 = FACE_OUTER_BOUND ( 'NONE', #105, .T. ) ;
#167 = EDGE_LOOP ( 'NONE', ( #198, #132, #214, #3 ) ) ;
#168 = VERTEX_POINT ( 'NONE', #267 ) ;
#169 = DIRECTION ( 'NONE',  ( -0.0000000000000000000, -1.000000000000000000, -0.0000000000000000000 ) ) ;
#170 = DIRECTION ( 'NONE',  ( 0.0000000000000000000, 0.0000000000000000000, -1.000000000000000000 ) ) ;
#171 =( NAMED_UNIT ( * ) PLANE_ANGLE_UNIT ( ) SI_UNIT ( $, .RADIAN. ) );
#172 = EDGE_CURVE ( 'NONE', #227, #226, #277, .T. ) ;
#173 = CARTESIAN_POINT ( 'NONE',  ( 0.0000000000000000000, 50.74000000000000199, 0.0000000000000000000 ) ) ;
#174 = DIRECTION ( 'NONE',  ( -0.0000000000000000000, -1.000000000000000000, -0.0000000000000000000 ) ) ;
#175 = CARTESIAN_POINT ( 'NONE',  ( 0.0000000000000000000, 50.74000000000000199, -54.95499999999999119 ) ) ;
#176 = CIRCLE ( 'NONE', #251, 54.95499999999999829 ) ;
#177 = CARTESIAN_POINT ( 'NONE',  ( 0.0000000000000000000, 48.70999999999999375, -55.94499999999998607 ) ) ;
#178 =( NAMED_UNIT ( * ) SI_UNIT ( $, .STERADIAN. ) SOLID_ANGLE_UNIT ( ) );
#179 = DIRECTION ( 'NONE',  ( 0.0000000000000000000, -0.0000000000000000000, 1.000000000000000000 ) ) ;
#180 = EDGE_CURVE ( 'NONE', #226, #227, #223, .T. ) ;
#181 = SURFACE_STYLE_FILL_AREA ( #139 ) ;
#182 = PRESENTATION_LAYER_ASSIGNMENT (  '', '', ( #68 ) ) ;
#183 = CYLINDRICAL_SURFACE ( 'NONE', #240, 55.94499999999998607 ) ;
#184 = EDGE_CURVE ( 'NONE', #168, #64, #176, .T. ) ;
#185 = COLOUR_RGB ( '',0.7921568627450980005, 0.8196078431372548767, 0.9333333333333333481 ) ;
#186 = EDGE_CURVE ( 'NONE', #233, #19, #246, .T. ) ;
#187 = ADVANCED_FACE ( 'NONE', ( #111, #49 ), #53, .T. ) ;
#188 = ORIENTED_EDGE ( 'NONE', *, *, #269, .F. ) ;
#189 = PLANE ( 'NONE',  #207 ) ;
#190 = EDGE_CURVE ( 'NONE', #252, #91, #101, .T. ) ;
#191 = CARTESIAN_POINT ( 'NONE',  ( 0.0000000000000000000, 0.0000000000000000000, 0.0000000000000000000 ) ) ;
#192 = DIRECTION ( 'NONE',  ( 0.0000000000000000000, 0.0000000000000000000, -1.000000000000000000 ) ) ;
#193 = ORIENTED_EDGE ( 'NONE', *, *, #149, .F. ) ;
#194 = DIRECTION ( 'NONE',  ( -0.0000000000000000000, -1.000000000000000000, -0.0000000000000000000 ) ) ;
#195 = DIRECTION ( 'NONE',  ( -0.0000000000000000000, -1.000000000000000000, -0.0000000000000000000 ) ) ;
#196 =( GEOMETRIC_REPRESENTATION_CONTEXT ( 3 ) GLOBAL_UNCERTAINTY_ASSIGNED_CONTEXT ( ( #51 ) ) GLOBAL_UNIT_ASSIGNED_CONTEXT ( ( #29, #215, #10 ) ) REPRESENTATION_CONTEXT ( 'NONE', 'WORKASPACE' ) );
#197 = CARTESIAN_POINT ( 'NONE',  ( 0.0000000000000000000, 0.0000000000000000000, 0.0000000000000000000 ) ) ;
#198 = ORIENTED_EDGE ( 'NONE', *, *, #47, .F. ) ;
#199 = SHAPE_DEFINITION_REPRESENTATION ( #200, #2 ) ;
#200 = PRODUCT_DEFINITION_SHAPE ( 'NONE', 'NONE',  #247 ) ;
#201 =( GEOMETRIC_REPRESENTATION_CONTEXT ( 3 ) GLOBAL_UNCERTAINTY_ASSIGNED_CONTEXT ( ( #81 ) ) GLOBAL_UNIT_ASSIGNED_CONTEXT ( ( #256, #13, #221 ) ) REPRESENTATION_CONTEXT ( 'NONE', 'WORKASPACE' ) );
#202 = EDGE_LOOP ( 'NONE', ( #60, #255 ) ) ;
#203 = FACE_OUTER_BOUND ( 'NONE', #128, .T. ) ;
#204 = EDGE_LOOP ( 'NONE', ( #210, #147, #165, #22 ) ) ;
#205 = AXIS2_PLACEMENT_3D ( 'NONE', #285, #35, #144 ) ;
#206 = ADVANCED_FACE ( 'NONE', ( #287 ), #42, .T. ) ;
#207 = AXIS2_PLACEMENT_3D ( 'NONE', #34, #15, #179 ) ;
#208 = EDGE_CURVE ( 'NONE', #283, #16, #57, .T. ) ;
#209 = CARTESIAN_POINT ( 'NONE',  ( 0.0000000000000000000, 0.0000000000000000000, 57.54999999999999716 ) ) ;
#210 = ORIENTED_EDGE ( 'NONE', *, *, #172, .F. ) ;
#211 = CIRCLE ( 'NONE', #77, 54.95499999999999119 ) ;
#212 = DIRECTION ( 'NONE',  ( -0.0000000000000000000, -1.000000000000000000, -0.0000000000000000000 ) ) ;
#213 = DIRECTION ( 'NONE',  ( -0.0000000000000000000, -1.000000000000000000, -0.0000000000000000000 ) ) ;
#214 = ORIENTED_EDGE ( 'NONE', *, *, #116, .T. ) ;
#215 =( NAMED_UNIT ( * ) PLANE_ANGLE_UNIT ( ) SI_UNIT ( $, .RADIAN. ) );
#216 = DIRECTION ( 'NONE',  ( -0.0000000000000000000, -1.000000000000000000, -0.0000000000000000000 ) ) ;
#217 = CARTESIAN_POINT ( 'NONE',  ( 0.0000000000000000000, 0.0000000000000000000, 0.0000000000000000000 ) ) ;
#218 = DIRECTION ( 'NONE',  ( 0.0000000000000000000, 0.0000000000000000000, -1.000000000000000000 ) ) ;
#219 = AXIS2_PLACEMENT_3D ( 'NONE', #39, #266, #126 ) ;
#220 = DIRECTION ( 'NONE',  ( 0.0000000000000000000, 0.0000000000000000000, -1.000000000000000000 ) ) ;
#221 =( NAMED_UNIT ( * ) SI_UNIT ( $, .STERADIAN. ) SOLID_ANGLE_UNIT ( ) );
#222 = CARTESIAN_POINT ( 'NONE',  ( 7.047842329093017558E-15, 0.0000000000000000000, -57.54999999999999716 ) ) ;
#223 = CIRCLE ( 'NONE', #219, 57.54999999999999716 ) ;
#224 = DIRECTION ( 'NONE',  ( -0.0000000000000000000, -1.000000000000000000, -0.0000000000000000000 ) ) ;
#225 = DIRECTION ( 'NONE',  ( 0.0000000000000000000, 0.0000000000000000000, 1.000000000000000000 ) ) ;
#226 = VERTEX_POINT ( 'NONE', #209 ) ;
#227 = VERTEX_POINT ( 'NONE', #239 ) ;
#228 = AXIS2_PLACEMENT_3D ( 'NONE', #8, #30, #74 ) ;
#229 = AXIS2_PLACEMENT_3D ( 'NONE', #217, #88, #20 ) ;
#230 = CIRCLE ( 'NONE', #110, 54.95499999999999829 ) ;
#231 = ORIENTED_EDGE ( 'NONE', *, *, #262, .T. ) ;
#232 = CYLINDRICAL_SURFACE ( 'NONE', #63, 54.95499999999999119 ) ;
#233 = VERTEX_POINT ( 'NONE', #27 ) ;
#234 = APPLICATION_CONTEXT ( 'automotive_design' ) ;
#235 = MECHANICAL_DESIGN_GEOMETRIC_PRESENTATION_REPRESENTATION (  '', ( #61 ), #201 ) ;
#236 = FACE_OUTER_BOUND ( 'NONE', #93, .T. ) ;
#237 = CARTESIAN_POINT ( 'NONE',  ( 54.95499999999999829, 0.0000000000000000000, 0.0000000000000000000 ) ) ;
#238 = EDGE_LOOP ( 'NONE', ( #273, #44, #231, #164 ) ) ;
#239 = CARTESIAN_POINT ( 'NONE',  ( 7.332266548194989372E-15, 0.0000000000000000000, -57.54999999999999716 ) ) ;
#240 = AXIS2_PLACEMENT_3D ( 'NONE', #248, #102, #12 ) ;
#241 = CARTESIAN_POINT ( 'NONE',  ( 0.0000000000000000000, 48.70999999999999375, 0.0000000000000000000 ) ) ;
#242 = DIRECTION ( 'NONE',  ( -0.0000000000000000000, -1.000000000000000000, -0.0000000000000000000 ) ) ;
#243 = VECTOR ( 'NONE', #174, 1000.000000000000000 ) ;
#244 = FILL_AREA_STYLE ('',( #33 ) ) ;
#245 = CARTESIAN_POINT ( 'NONE',  ( 0.0000000000000000000, 0.0000000000000000000, 57.54999999999999716 ) ) ;
#246 = CIRCLE ( 'NONE', #228, 62.19499999999998607 ) ;
#247 = PRODUCT_DEFINITION ( 'UNKNOWN', '', #115, #32 ) ;
#248 = CARTESIAN_POINT ( 'NONE',  ( 0.0000000000000000000, 0.0000000000000000000, 0.0000000000000000000 ) ) ;
#249 = EDGE_CURVE ( 'NONE', #64, #168, #230, .T. ) ;
#250 = CONICAL_SURFACE ( 'NONE', #284, 57.54999999999999716, 0.09507280690407070300 ) ;
#251 = AXIS2_PLACEMENT_3D ( 'NONE', #150, #224, #107 ) ;
#252 = VERTEX_POINT ( 'NONE', #95 ) ;
#253 = EDGE_CURVE ( 'NONE', #52, #28, #294, .T. ) ;
#254 = ADVANCED_FACE ( 'NONE', ( #156, #203 ), #189, .T. ) ;
#255 = ORIENTED_EDGE ( 'NONE', *, *, #249, .F. ) ;
#256 =( LENGTH_UNIT ( ) NAMED_UNIT ( * ) SI_UNIT ( .MILLI., .METRE. ) );
#257 = CARTESIAN_POINT ( 'NONE',  ( 0.0000000000000000000, 0.0000000000000000000, 0.0000000000000000000 ) ) ;
#258 = SURFACE_SIDE_STYLE ('',( #136 ) ) ;
#259 = CARTESIAN_POINT ( 'NONE',  ( 0.0000000000000000000, 50.74000000000000199, 0.0000000000000000000 ) ) ;
#260 = CARTESIAN_POINT ( 'NONE',  ( 6.730046484714278145E-15, 0.0000000000000000000, 54.95499999999999119 ) ) ;
#261 = CARTESIAN_POINT ( 'NONE',  ( 0.0000000000000000000, 0.0000000000000000000, -55.94499999999998607 ) ) ;
#262 = EDGE_CURVE ( 'NONE', #91, #28, #155, .T. ) ;
#263 = DIRECTION ( 'NONE',  ( -0.0000000000000000000, -1.000000000000000000, -0.0000000000000000000 ) ) ;
#264 = CARTESIAN_POINT ( 'NONE',  ( 0.0000000000000000000, 48.70999999999999375, 0.0000000000000000000 ) ) ;
#265 = EDGE_LOOP ( 'NONE', ( #46, #109, #82, #292 ) ) ;
#266 = DIRECTION ( 'NONE',  ( -0.0000000000000000000, -1.000000000000000000, -0.0000000000000000000 ) ) ;
#267 = CARTESIAN_POINT ( 'NONE',  ( 0.0000000000000000000, 0.0000000000000000000, -54.95499999999999829 ) ) ;
#268 = ORIENTED_EDGE ( 'NONE', *, *, #208, .T. ) ;
#269 = EDGE_CURVE ( 'NONE', #19, #233, #106, .T. ) ;
#270 = ORIENTED_EDGE ( 'NONE', *, *, #7, .F. ) ;
#271 = APPLICATION_PROTOCOL_DEFINITION ( 'draft international standard', 'automotive_design', 1998, #234 ) ;
#272 = ORIENTED_EDGE ( 'NONE', *, *, #208, .F. ) ;
#273 = ORIENTED_EDGE ( 'NONE', *, *, #291, .F. ) ;
#274 = ADVANCED_FACE ( 'NONE', ( #1 ), #232, .F. ) ;
#275 = ADVANCED_FACE ( 'NONE', ( #280, #166 ), #96, .T. ) ;
#276 = EDGE_CURVE ( 'NONE', #16, #283, #211, .T. ) ;
#277 = CIRCLE ( 'NONE', #158, 57.54999999999999716 ) ;
#278 = FACE_OUTER_BOUND ( 'NONE', #265, .T. ) ;
#279 = ORIENTED_EDGE ( 'NONE', *, *, #186, .F. ) ;
#280 = FACE_BOUND ( 'NONE', #78, .T. ) ;
#281 = CARTESIAN_POINT ( 'NONE',  ( 0.0000000000000000000, 0.0000000000000000000, 0.0000000000000000000 ) ) ;
#282 = CARTESIAN_POINT ( 'NONE',  ( 0.0000000000000000000, 50.74000000000000199, -55.94499999999998607 ) ) ;
#283 = VERTEX_POINT ( 'NONE', #145 ) ;
#284 = AXIS2_PLACEMENT_3D ( 'NONE', #100, #146, #225 ) ;
#285 = CARTESIAN_POINT ( 'NONE',  ( 0.0000000000000000000, 0.0000000000000000000, 0.0000000000000000000 ) ) ;
#286 = DIRECTION ( 'NONE',  ( 0.0000000000000000000, 0.0000000000000000000, -1.000000000000000000 ) ) ;
#287 = FACE_OUTER_BOUND ( 'NONE', #238, .T. ) ;
#288 = DIRECTION ( 'NONE',  ( 1.162552883341824867E-17, 0.9954839838600024748, -0.09492964699301377485 ) ) ;
#289 = VECTOR ( 'NONE', #123, 1000.000000000000114 ) ;
#290 = ORIENTED_EDGE ( 'NONE', *, *, #131, .T. ) ;
#291 = EDGE_CURVE ( 'NONE', #252, #52, #50, .T. ) ;
#292 = ORIENTED_EDGE ( 'NONE', *, *, #184, .T. ) ;
#293 = PRESENTATION_STYLE_ASSIGNMENT (( #119 ) ) ;
#294 = CIRCLE ( 'NONE', #154, 55.94499999999998607 ) ;
ENDSEC;
END-ISO-10303-21;
