ISO-10303-21;
HEADER;
/* Generated by software containing ST-Developer
 * from STEP Tools, Inc. (www.steptools.com) 
 */

FILE_DESCRIPTION(
/* description */ (''),
/* implementation_level */ '2;1');

FILE_NAME(
/* name */ 
'D:/Dropbox/3-CARBON vincent anne/1-EN COURS/1A-Reacteur/PlansVINCE/Fi
chiersUsinage/DemiSphereArriere v2.step',
/* time_stamp */ '2020-09-28T11:28:23+02:00',
/* author */ (''),
/* organization */ (''),
/* preprocessor_version */ 'ST-DEVELOPER v18.1',
/* originating_system */ 'Autodesk Translation Framework v9.3.0.1241',
/* authorisation */ '');

FILE_SCHEMA (('AUTOMOTIVE_DESIGN { 1 0 10303 214 3 1 1 }'));
ENDSEC;

DATA;
#10=MECHANICAL_DESIGN_GEOMETRIC_PRESENTATION_REPRESENTATION('',(#13),#187);
#11=SHAPE_REPRESENTATION_RELATIONSHIP('SRR','None',#194,#12);
#12=ADVANCED_BREP_SHAPE_REPRESENTATION('',(#14),#186);
#13=STYLED_ITEM('',(#204),#14);
#14=MANIFOLD_SOLID_BREP('Body1',#95);
#15=FACE_BOUND('',#31,.T.);
#16=PLANE('',#116);
#17=PLANE('',#120);
#18=SPHERICAL_SURFACE('',#114,50.);
#19=SPHERICAL_SURFACE('',#122,50.);
#20=FACE_OUTER_BOUND('',#26,.T.);
#21=FACE_OUTER_BOUND('',#27,.T.);
#22=FACE_OUTER_BOUND('',#28,.T.);
#23=FACE_OUTER_BOUND('',#29,.T.);
#24=FACE_OUTER_BOUND('',#30,.T.);
#25=FACE_OUTER_BOUND('',#32,.T.);
#26=EDGE_LOOP('',(#65,#66,#67,#68,#69,#70));
#27=EDGE_LOOP('',(#71,#72,#73,#74));
#28=EDGE_LOOP('',(#75));
#29=EDGE_LOOP('',(#76,#77,#78,#79));
#30=EDGE_LOOP('',(#80));
#31=EDGE_LOOP('',(#81));
#32=EDGE_LOOP('',(#82,#83,#84,#85,#86));
#33=LINE('',#164,#35);
#34=LINE('',#178,#36);
#35=VECTOR('',#130,2.6);
#36=VECTOR('',#149,47.8);
#37=CIRCLE('',#110,2.6);
#38=CIRCLE('',#111,2.6);
#39=CIRCLE('',#112,2.6);
#40=CIRCLE('',#113,2.6);
#41=CIRCLE('',#115,50.);
#42=CIRCLE('',#117,47.8);
#43=CIRCLE('',#119,47.8);
#44=CIRCLE('',#121,50.);
#45=CIRCLE('',#123,50.);
#46=VERTEX_POINT('',#160);
#47=VERTEX_POINT('',#161);
#48=VERTEX_POINT('',#163);
#49=VERTEX_POINT('',#165);
#50=VERTEX_POINT('',#170);
#51=VERTEX_POINT('',#173);
#52=VERTEX_POINT('',#176);
#53=VERTEX_POINT('',#180);
#54=EDGE_CURVE('',#46,#47,#37,.T.);
#55=EDGE_CURVE('',#46,#48,#33,.T.);
#56=EDGE_CURVE('',#48,#49,#38,.T.);
#57=EDGE_CURVE('',#49,#48,#39,.T.);
#58=EDGE_CURVE('',#47,#46,#40,.T.);
#59=EDGE_CURVE('',#50,#49,#41,.T.);
#60=EDGE_CURVE('',#51,#51,#42,.T.);
#61=EDGE_CURVE('',#52,#52,#43,.T.);
#62=EDGE_CURVE('',#52,#51,#34,.T.);
#63=EDGE_CURVE('',#53,#53,#44,.T.);
#64=EDGE_CURVE('',#47,#53,#45,.T.);
#65=ORIENTED_EDGE('',*,*,#54,.F.);
#66=ORIENTED_EDGE('',*,*,#55,.T.);
#67=ORIENTED_EDGE('',*,*,#56,.T.);
#68=ORIENTED_EDGE('',*,*,#57,.T.);
#69=ORIENTED_EDGE('',*,*,#55,.F.);
#70=ORIENTED_EDGE('',*,*,#58,.F.);
#71=ORIENTED_EDGE('',*,*,#56,.F.);
#72=ORIENTED_EDGE('',*,*,#57,.F.);
#73=ORIENTED_EDGE('',*,*,#59,.F.);
#74=ORIENTED_EDGE('',*,*,#59,.T.);
#75=ORIENTED_EDGE('',*,*,#60,.T.);
#76=ORIENTED_EDGE('',*,*,#61,.T.);
#77=ORIENTED_EDGE('',*,*,#62,.T.);
#78=ORIENTED_EDGE('',*,*,#60,.F.);
#79=ORIENTED_EDGE('',*,*,#62,.F.);
#80=ORIENTED_EDGE('',*,*,#63,.T.);
#81=ORIENTED_EDGE('',*,*,#61,.F.);
#82=ORIENTED_EDGE('',*,*,#54,.T.);
#83=ORIENTED_EDGE('',*,*,#64,.T.);
#84=ORIENTED_EDGE('',*,*,#63,.F.);
#85=ORIENTED_EDGE('',*,*,#64,.F.);
#86=ORIENTED_EDGE('',*,*,#58,.T.);
#87=CYLINDRICAL_SURFACE('',#109,2.6);
#88=CYLINDRICAL_SURFACE('',#118,47.8);
#89=ADVANCED_FACE('',(#20),#87,.F.);
#90=ADVANCED_FACE('',(#21),#18,.T.);
#91=ADVANCED_FACE('',(#22),#16,.F.);
#92=ADVANCED_FACE('',(#23),#88,.T.);
#93=ADVANCED_FACE('',(#24,#15),#17,.F.);
#94=ADVANCED_FACE('',(#25),#19,.T.);
#95=CLOSED_SHELL('',(#89,#90,#91,#92,#93,#94));
#96=DERIVED_UNIT_ELEMENT(#98,1.);
#97=DERIVED_UNIT_ELEMENT(#189,3.);
#98=(
MASS_UNIT()
NAMED_UNIT(*)
SI_UNIT(.KILO.,.GRAM.)
);
#99=DERIVED_UNIT((#96,#97));
#100=MEASURE_REPRESENTATION_ITEM('density measure',
POSITIVE_RATIO_MEASURE(7850.),#99);
#101=PROPERTY_DEFINITION_REPRESENTATION(#106,#103);
#102=PROPERTY_DEFINITION_REPRESENTATION(#107,#104);
#103=REPRESENTATION('material name',(#105),#186);
#104=REPRESENTATION('density',(#100),#186);
#105=DESCRIPTIVE_REPRESENTATION_ITEM('Steel','Steel');
#106=PROPERTY_DEFINITION('material property','material name',#196);
#107=PROPERTY_DEFINITION('material property','density of part',#196);
#108=AXIS2_PLACEMENT_3D('placement',#158,#124,#125);
#109=AXIS2_PLACEMENT_3D('',#159,#126,#127);
#110=AXIS2_PLACEMENT_3D('',#162,#128,#129);
#111=AXIS2_PLACEMENT_3D('',#166,#131,#132);
#112=AXIS2_PLACEMENT_3D('',#167,#133,#134);
#113=AXIS2_PLACEMENT_3D('',#168,#135,#136);
#114=AXIS2_PLACEMENT_3D('',#169,#137,#138);
#115=AXIS2_PLACEMENT_3D('',#171,#139,#140);
#116=AXIS2_PLACEMENT_3D('',#172,#141,#142);
#117=AXIS2_PLACEMENT_3D('',#174,#143,#144);
#118=AXIS2_PLACEMENT_3D('',#175,#145,#146);
#119=AXIS2_PLACEMENT_3D('',#177,#147,#148);
#120=AXIS2_PLACEMENT_3D('',#179,#150,#151);
#121=AXIS2_PLACEMENT_3D('',#181,#152,#153);
#122=AXIS2_PLACEMENT_3D('',#182,#154,#155);
#123=AXIS2_PLACEMENT_3D('',#183,#156,#157);
#124=DIRECTION('axis',(0.,0.,1.));
#125=DIRECTION('refdir',(1.,0.,0.));
#126=DIRECTION('center_axis',(0.,-1.,0.));
#127=DIRECTION('ref_axis',(1.,0.,0.));
#128=DIRECTION('center_axis',(0.,-1.,0.));
#129=DIRECTION('ref_axis',(1.,0.,0.));
#130=DIRECTION('',(0.,-1.,0.));
#131=DIRECTION('center_axis',(0.,-1.,0.));
#132=DIRECTION('ref_axis',(1.,0.,0.));
#133=DIRECTION('center_axis',(0.,-1.,0.));
#134=DIRECTION('ref_axis',(1.,0.,0.));
#135=DIRECTION('center_axis',(0.,-1.,0.));
#136=DIRECTION('ref_axis',(1.,0.,0.));
#137=DIRECTION('center_axis',(0.,1.,0.));
#138=DIRECTION('ref_axis',(0.,0.,1.));
#139=DIRECTION('center_axis',(-1.,0.,-1.22464679914735E-16));
#140=DIRECTION('ref_axis',(1.22464679914735E-16,0.,-1.));
#141=DIRECTION('center_axis',(0.,1.,0.));
#142=DIRECTION('ref_axis',(0.,0.,1.));
#143=DIRECTION('center_axis',(0.,-1.,0.));
#144=DIRECTION('ref_axis',(1.,0.,0.));
#145=DIRECTION('center_axis',(0.,-1.,0.));
#146=DIRECTION('ref_axis',(0.,0.,-1.));
#147=DIRECTION('center_axis',(0.,-1.,0.));
#148=DIRECTION('ref_axis',(1.,0.,0.));
#149=DIRECTION('',(0.,-1.,0.));
#150=DIRECTION('center_axis',(0.,1.,0.));
#151=DIRECTION('ref_axis',(0.,0.,1.));
#152=DIRECTION('center_axis',(0.,-1.,0.));
#153=DIRECTION('ref_axis',(1.,0.,0.));
#154=DIRECTION('center_axis',(0.,1.,0.));
#155=DIRECTION('ref_axis',(0.,0.,1.));
#156=DIRECTION('center_axis',(-1.,0.,-1.22464679914735E-16));
#157=DIRECTION('ref_axis',(1.22464679914735E-16,0.,-1.));
#158=CARTESIAN_POINT('',(0.,0.,0.));
#159=CARTESIAN_POINT('Origin',(0.,-143.163277759488,-250.));
#160=CARTESIAN_POINT('',(-2.6,-143.163277759488,-250.));
#161=CARTESIAN_POINT('',(3.18408167778316E-16,-143.163277759488,-252.6));
#162=CARTESIAN_POINT('Origin',(0.,-143.163277759488,-250.));
#163=CARTESIAN_POINT('',(-2.6,-158.163277759488,-250.));
#164=CARTESIAN_POINT('',(-2.6,-143.163277759488,-250.));
#165=CARTESIAN_POINT('',(3.18408167778316E-16,-158.163277759488,-252.6));
#166=CARTESIAN_POINT('Origin',(0.,-158.163277759488,-250.));
#167=CARTESIAN_POINT('Origin',(0.,-158.163277759488,-250.));
#168=CARTESIAN_POINT('Origin',(0.,-143.163277759488,-250.));
#169=CARTESIAN_POINT('Origin',(0.,-208.095632,-250.));
#170=CARTESIAN_POINT('',(3.74939945665465E-31,-158.095632,-250.));
#171=CARTESIAN_POINT('Origin',(0.,-208.095632,-250.));
#172=CARTESIAN_POINT('Origin',(0.,-208.095632,-297.8));
#173=CARTESIAN_POINT('',(-5.85381169992435E-15,-208.095632,-202.2));
#174=CARTESIAN_POINT('Origin',(0.,-208.095632,-250.));
#175=CARTESIAN_POINT('Origin',(0.,-200.595632,-250.));
#176=CARTESIAN_POINT('',(-5.85381169992435E-15,-193.095632,-202.2));
#177=CARTESIAN_POINT('Origin',(0.,-193.095632,-250.));
#178=CARTESIAN_POINT('',(-5.85381169992435E-15,-200.595632,-202.2));
#179=CARTESIAN_POINT('Origin',(0.,-193.095632,-300.));
#180=CARTESIAN_POINT('',(0.,-193.095632,-300.));
#181=CARTESIAN_POINT('Origin',(0.,-193.095632,-250.));
#182=CARTESIAN_POINT('Origin',(0.,-193.095632,-250.));
#183=CARTESIAN_POINT('Origin',(0.,-193.095632,-250.));
#184=UNCERTAINTY_MEASURE_WITH_UNIT(LENGTH_MEASURE(0.01),#188,
'DISTANCE_ACCURACY_VALUE',
'Maximum model space distance between geometric entities at asserted c
onnectivities');
#185=UNCERTAINTY_MEASURE_WITH_UNIT(LENGTH_MEASURE(0.01),#188,
'DISTANCE_ACCURACY_VALUE',
'Maximum model space distance between geometric entities at asserted c
onnectivities');
#186=(
GEOMETRIC_REPRESENTATION_CONTEXT(3)
GLOBAL_UNCERTAINTY_ASSIGNED_CONTEXT((#184))
GLOBAL_UNIT_ASSIGNED_CONTEXT((#188,#190,#191))
REPRESENTATION_CONTEXT('','3D')
);
#187=(
GEOMETRIC_REPRESENTATION_CONTEXT(3)
GLOBAL_UNCERTAINTY_ASSIGNED_CONTEXT((#185))
GLOBAL_UNIT_ASSIGNED_CONTEXT((#188,#190,#191))
REPRESENTATION_CONTEXT('','3D')
);
#188=(
LENGTH_UNIT()
NAMED_UNIT(*)
SI_UNIT(.MILLI.,.METRE.)
);
#189=(
LENGTH_UNIT()
NAMED_UNIT(*)
SI_UNIT($,.METRE.)
);
#190=(
NAMED_UNIT(*)
PLANE_ANGLE_UNIT()
SI_UNIT($,.RADIAN.)
);
#191=(
NAMED_UNIT(*)
SI_UNIT($,.STERADIAN.)
SOLID_ANGLE_UNIT()
);
#192=SHAPE_DEFINITION_REPRESENTATION(#193,#194);
#193=PRODUCT_DEFINITION_SHAPE('',$,#196);
#194=SHAPE_REPRESENTATION('',(#108),#186);
#195=PRODUCT_DEFINITION_CONTEXT('part definition',#200,'design');
#196=PRODUCT_DEFINITION('DemiSphereArriere','DemiSphereArriere v2',#197,
#195);
#197=PRODUCT_DEFINITION_FORMATION('',$,#202);
#198=PRODUCT_RELATED_PRODUCT_CATEGORY('DemiSphereArriere v2',
'DemiSphereArriere v2',(#202));
#199=APPLICATION_PROTOCOL_DEFINITION('international standard',
'automotive_design',2009,#200);
#200=APPLICATION_CONTEXT(
'Core Data for Automotive Mechanical Design Process');
#201=PRODUCT_CONTEXT('part definition',#200,'mechanical');
#202=PRODUCT('DemiSphereArriere','DemiSphereArriere v2',$,(#201));
#203=PRESENTATION_STYLE_ASSIGNMENT((#205));
#204=PRESENTATION_STYLE_ASSIGNMENT((#206));
#205=SURFACE_STYLE_USAGE(.BOTH.,#207);
#206=SURFACE_STYLE_USAGE(.BOTH.,#208);
#207=SURFACE_SIDE_STYLE('',(#209));
#208=SURFACE_SIDE_STYLE('',(#210));
#209=SURFACE_STYLE_FILL_AREA(#211);
#210=SURFACE_STYLE_FILL_AREA(#212);
#211=FILL_AREA_STYLE('Steel - Satin',(#213));
#212=FILL_AREA_STYLE('Aluminum - Polished',(#214));
#213=FILL_AREA_STYLE_COLOUR('Steel - Satin',#215);
#214=FILL_AREA_STYLE_COLOUR('Aluminum - Polished',#216);
#215=COLOUR_RGB('Steel - Satin',0.627450980392157,0.627450980392157,0.627450980392157);
#216=COLOUR_RGB('Aluminum - Polished',0.96078431372549,0.96078431372549,
0.964705882352941);
ENDSEC;
END-ISO-10303-21;
