ISO-10303-21;
HEADER;
FILE_DESCRIPTION (( 'STEP AP214' ),
    '1' );
FILE_NAME ('XW-USI-057-A-entretoise1.STEP',
    '2020-09-18T12:22:47',
    ( '' ),
    ( '' ),
    'SwSTEP 2.0',
    'SolidWorks 2016',
    '' );
FILE_SCHEMA (( 'AUTOMOTIVE_DESIGN' ));
ENDSEC;

DATA;
#1 = DIRECTION ( 'NONE',  ( 1.000000000000000000, 0.0000000000000000000, 0.0000000000000000000 ) ) ;
#2 = AXIS2_PLACEMENT_3D ( 'NONE', #13, #99, #174 ) ;
#3 = VERTEX_POINT ( 'NONE', #193 ) ;
#4 = AXIS2_PLACEMENT_3D ( 'NONE', #98, #35, #210 ) ;
#5 = UNCERTAINTY_MEASURE_WITH_UNIT (LENGTH_MEASURE( 1.000000000000000100E-005 ), #96, 'distance_accuracy_value', 'NONE');
#6 = CARTESIAN_POINT ( 'NONE',  ( 0.0000000000000000000, 0.0000000000000000000, 0.0000000000000000000 ) ) ;
#7 = DIRECTION ( 'NONE',  ( -1.000000000000000000, 0.0000000000000000000, 0.0000000000000000000 ) ) ;
#8 = ORIENTED_EDGE ( 'NONE', *, *, #38, .T. ) ;
#9 = ADVANCED_FACE ( 'NONE', ( #196 ), #102, .T. ) ;
#10 = LINE ( 'NONE', #212, #27 ) ;
#11 = PLANE ( 'NONE',  #4 ) ;
#12 = FILL_AREA_STYLE_COLOUR ( '', #81 ) ;
#13 = CARTESIAN_POINT ( 'NONE',  ( 0.0000000000000000000, 0.0000000000000000000, 1.800000000000000000 ) ) ;
#14 = ORIENTED_EDGE ( 'NONE', *, *, #25, .T. ) ;
#15 = ORIENTED_EDGE ( 'NONE', *, *, #186, .T. ) ;
#16 = CIRCLE ( 'NONE', #209, 5.250000000000000000 ) ;
#17 = FACE_OUTER_BOUND ( 'NONE', #28, .T. ) ;
#18 = EDGE_LOOP ( 'NONE', ( #140, #15, #150, #76 ) ) ;
#19 = AXIS2_PLACEMENT_3D ( 'NONE', #168, #51, #213 ) ;
#20 = PRODUCT_CONTEXT ( 'NONE', #120, 'mechanical' ) ;
#21 = APPLICATION_PROTOCOL_DEFINITION ( 'draft international standard', 'automotive_design', 1998, #120 ) ;
#22 = ORIENTED_EDGE ( 'NONE', *, *, #73, .F. ) ;
#23 = PRESENTATION_STYLE_ASSIGNMENT (( #133 ) ) ;
#24 = VERTEX_POINT ( 'NONE', #70 ) ;
#25 = EDGE_CURVE ( 'NONE', #181, #106, #151, .T. ) ;
#26 = ADVANCED_FACE ( 'NONE', ( #104, #143 ), #206, .F. ) ;
#27 = VECTOR ( 'NONE', #88, 1000.000000000000000 ) ;
#28 = EDGE_LOOP ( 'NONE', ( #14, #136 ) ) ;
#29 = CARTESIAN_POINT ( 'NONE',  ( 0.0000000000000000000, 0.0000000000000000000, 0.0000000000000000000 ) ) ;
#30 = DIRECTION ( 'NONE',  ( 0.0000000000000000000, 0.0000000000000000000, 1.000000000000000000 ) ) ;
#31 = AXIS2_PLACEMENT_3D ( 'NONE', #204, #127, #7 ) ;
#32 =( NAMED_UNIT ( * ) SI_UNIT ( $, .STERADIAN. ) SOLID_ANGLE_UNIT ( ) );
#33 = DIRECTION ( 'NONE',  ( 1.000000000000000000, 0.0000000000000000000, 0.0000000000000000000 ) ) ;
#34 = UNCERTAINTY_MEASURE_WITH_UNIT (LENGTH_MEASURE( 1.000000000000000100E-005 ), #71, 'distance_accuracy_value', 'NONE');
#35 = DIRECTION ( 'NONE',  ( 0.0000000000000000000, 0.0000000000000000000, 1.000000000000000000 ) ) ;
#36 = DIRECTION ( 'NONE',  ( -0.0000000000000000000, -0.0000000000000000000, -1.000000000000000000 ) ) ;
#37 = EDGE_LOOP ( 'NONE', ( #189, #92 ) ) ;
#38 = EDGE_CURVE ( 'NONE', #198, #185, #67, .T. ) ;
#39 = APPLICATION_CONTEXT ( 'automotive_design' ) ;
#40 = AXIS2_PLACEMENT_3D ( 'NONE', #131, #30, #132 ) ;
#41 = LINE ( 'NONE', #50, #203 ) ;
#42 = PRODUCT ( 'XW-USI-057-A-entretoise1', 'XW-USI-057-A-entretoise1', '', ( #20 ) ) ;
#43 = AXIS2_PLACEMENT_3D ( 'NONE', #138, #75, #33 ) ;
#44 = DIRECTION ( 'NONE',  ( 1.000000000000000000, 0.0000000000000000000, 0.0000000000000000000 ) ) ;
#45 = PRODUCT_DEFINITION_SHAPE ( 'NONE', 'NONE',  #124 ) ;
#46 = CARTESIAN_POINT ( 'NONE',  ( 0.0000000000000000000, 0.0000000000000000000, 1.800000000000000000 ) ) ;
#47 = DIRECTION ( 'NONE',  ( 1.000000000000000000, 0.0000000000000000000, 0.0000000000000000000 ) ) ;
#48 = UNCERTAINTY_MEASURE_WITH_UNIT (LENGTH_MEASURE( 1.000000000000000100E-005 ), #156, 'distance_accuracy_value', 'NONE');
#49 = CARTESIAN_POINT ( 'NONE',  ( 5.250000000000000000, 6.429395695523604200E-016, 1.800000000000000000 ) ) ;
#50 = CARTESIAN_POINT ( 'NONE',  ( -5.250000000000000000, 0.0000000000000000000, 1.800000000000000000 ) ) ;
#51 = DIRECTION ( 'NONE',  ( -0.0000000000000000000, -0.0000000000000000000, -1.000000000000000000 ) ) ;
#52 = EDGE_CURVE ( 'NONE', #181, #185, #179, .T. ) ;
#53 = VERTEX_POINT ( 'NONE', #117 ) ;
#54 = CIRCLE ( 'NONE', #121, 5.250000000000000000 ) ;
#55 = STYLED_ITEM ( 'NONE', ( #23 ), #177 ) ;
#56 = APPLICATION_PROTOCOL_DEFINITION ( 'draft international standard', 'automotive_design', 1998, #39 ) ;
#57 = ORIENTED_EDGE ( 'NONE', *, *, #52, .T. ) ;
#58 = ORIENTED_EDGE ( 'NONE', *, *, #52, .F. ) ;
#59 = CIRCLE ( 'NONE', #40, 5.250000000000000000 ) ;
#60 = CYLINDRICAL_SURFACE ( 'NONE', #31, 5.250000000000000000 ) ;
#61 = CARTESIAN_POINT ( 'NONE',  ( 7.500000000000000000, 9.184850993605147900E-016, 1.800000000000000000 ) ) ;
#62 = ORIENTED_EDGE ( 'NONE', *, *, #25, .F. ) ;
#63 = CARTESIAN_POINT ( 'NONE',  ( 0.0000000000000000000, 0.0000000000000000000, 1.800000000000000000 ) ) ;
#64 = AXIS2_PLACEMENT_3D ( 'NONE', #6, #184, #109 ) ;
#65 = ADVANCED_FACE ( 'NONE', ( #126 ), #167, .F. ) ;
#66 = DIRECTION ( 'NONE',  ( -0.0000000000000000000, -0.0000000000000000000, -1.000000000000000000 ) ) ;
#67 = CIRCLE ( 'NONE', #205, 7.500000000000000000 ) ;
#68 = FACE_BOUND ( 'NONE', #175, .T. ) ;
#69 = ORIENTED_EDGE ( 'NONE', *, *, #183, .T. ) ;
#70 = CARTESIAN_POINT ( 'NONE',  ( -5.250000000000000000, 0.0000000000000000000, 0.0000000000000000000 ) ) ;
#71 =( LENGTH_UNIT ( ) NAMED_UNIT ( * ) SI_UNIT ( .MILLI., .METRE. ) );
#72 = CARTESIAN_POINT ( 'NONE',  ( 7.500000000000000000, 9.184850993605147900E-016, 0.0000000000000000000 ) ) ;
#73 = EDGE_CURVE ( 'NONE', #3, #24, #41, .T. ) ;
#74 = DIRECTION ( 'NONE',  ( 1.000000000000000000, 0.0000000000000000000, 0.0000000000000000000 ) ) ;
#75 = DIRECTION ( 'NONE',  ( 0.0000000000000000000, 0.0000000000000000000, 1.000000000000000000 ) ) ;
#76 = ORIENTED_EDGE ( 'NONE', *, *, #97, .F. ) ;
#77 = ORIENTED_EDGE ( 'NONE', *, *, #163, .F. ) ;
#78 = DIRECTION ( 'NONE',  ( 0.0000000000000000000, 0.0000000000000000000, 1.000000000000000000 ) ) ;
#79 = PRESENTATION_LAYER_ASSIGNMENT (  '', '', ( #200 ) ) ;
#80 = VECTOR ( 'NONE', #66, 1000.000000000000000 ) ;
#81 = COLOUR_RGB ( '',1.000000000000000000, 1.000000000000000000, 1.000000000000000000 ) ;
#82 = ORIENTED_EDGE ( 'NONE', *, *, #129, .T. ) ;
#83 =( GEOMETRIC_REPRESENTATION_CONTEXT ( 3 ) GLOBAL_UNCERTAINTY_ASSIGNED_CONTEXT ( ( #5 ) ) GLOBAL_UNIT_ASSIGNED_CONTEXT ( ( #96, #115, #32 ) ) REPRESENTATION_CONTEXT ( 'NONE', 'WORKASPACE' ) );
#84 = FACE_OUTER_BOUND ( 'NONE', #201, .T. ) ;
#85 = DIRECTION ( 'NONE',  ( 0.0000000000000000000, 0.0000000000000000000, 1.000000000000000000 ) ) ;
#86 =( NAMED_UNIT ( * ) PLANE_ANGLE_UNIT ( ) SI_UNIT ( $, .RADIAN. ) );
#87 = CYLINDRICAL_SURFACE ( 'NONE', #19, 7.500000000000000000 ) ;
#88 = DIRECTION ( 'NONE',  ( -0.0000000000000000000, -0.0000000000000000000, -1.000000000000000000 ) ) ;
#89 = CARTESIAN_POINT ( 'NONE',  ( 0.0000000000000000000, 0.0000000000000000000, 0.0000000000000000000 ) ) ;
#90 = PRESENTATION_LAYER_ASSIGNMENT (  '', '', ( #55 ) ) ;
#91 = ADVANCED_BREP_SHAPE_REPRESENTATION ( 'XW-USI-057-A-entretoise1', ( #177, #192 ), #137 ) ;
#92 = ORIENTED_EDGE ( 'NONE', *, *, #97, .T. ) ;
#93 = EDGE_LOOP ( 'NONE', ( #159, #101, #8, #58 ) ) ;
#94 = DIRECTION ( 'NONE',  ( 1.000000000000000000, 0.0000000000000000000, 0.0000000000000000000 ) ) ;
#95 = ADVANCED_FACE ( 'NONE', ( #84 ), #87, .T. ) ;
#96 =( LENGTH_UNIT ( ) NAMED_UNIT ( * ) SI_UNIT ( .MILLI., .METRE. ) );
#97 = EDGE_CURVE ( 'NONE', #53, #24, #16, .T. ) ;
#98 = CARTESIAN_POINT ( 'NONE',  ( 0.0000000000000000000, 0.0000000000000000000, 1.800000000000000000 ) ) ;
#99 = DIRECTION ( 'NONE',  ( -0.0000000000000000000, -0.0000000000000000000, -1.000000000000000000 ) ) ;
#100 = ORIENTED_EDGE ( 'NONE', *, *, #183, .F. ) ;
#101 = ORIENTED_EDGE ( 'NONE', *, *, #163, .T. ) ;
#102 = CYLINDRICAL_SURFACE ( 'NONE', #125, 7.500000000000000000 ) ;
#103 =( NAMED_UNIT ( * ) PLANE_ANGLE_UNIT ( ) SI_UNIT ( $, .RADIAN. ) );
#104 = FACE_OUTER_BOUND ( 'NONE', #142, .T. ) ;
#105 = CIRCLE ( 'NONE', #64, 7.500000000000000000 ) ;
#106 = VERTEX_POINT ( 'NONE', #116 ) ;
#107 = COLOUR_RGB ( '',1.000000000000000000, 1.000000000000000000, 1.000000000000000000 ) ;
#108 = MECHANICAL_DESIGN_GEOMETRIC_PRESENTATION_REPRESENTATION (  '', ( #55 ), #83 ) ;
#109 = DIRECTION ( 'NONE',  ( 1.000000000000000000, 0.0000000000000000000, 0.0000000000000000000 ) ) ;
#110 = ORIENTED_EDGE ( 'NONE', *, *, #186, .F. ) ;
#111 = VECTOR ( 'NONE', #128, 1000.000000000000000 ) ;
#112 = ORIENTED_EDGE ( 'NONE', *, *, #129, .F. ) ;
#113 = CARTESIAN_POINT ( 'NONE',  ( -7.500000000000000000, 0.0000000000000000000, 1.800000000000000000 ) ) ;
#114 = EDGE_CURVE ( 'NONE', #106, #181, #187, .T. ) ;
#115 =( NAMED_UNIT ( * ) PLANE_ANGLE_UNIT ( ) SI_UNIT ( $, .RADIAN. ) );
#116 = CARTESIAN_POINT ( 'NONE',  ( 7.500000000000000000, 9.184850993605147900E-016, 1.800000000000000000 ) ) ;
#117 = CARTESIAN_POINT ( 'NONE',  ( 5.250000000000000000, 6.429395695523604200E-016, 0.0000000000000000000 ) ) ;
#118 = ORIENTED_EDGE ( 'NONE', *, *, #152, .F. ) ;
#119 = PRESENTATION_STYLE_ASSIGNMENT (( #139 ) ) ;
#120 = APPLICATION_CONTEXT ( 'automotive_design' ) ;
#121 = AXIS2_PLACEMENT_3D ( 'NONE', #146, #191, #47 ) ;
#122 =( NAMED_UNIT ( * ) SI_UNIT ( $, .STERADIAN. ) SOLID_ANGLE_UNIT ( ) );
#123 = PRODUCT_DEFINITION_CONTEXT ( 'detailed design', #39, 'design' ) ;
#124 = PRODUCT_DEFINITION ( 'UNKNOWN', '', #155, #123 ) ;
#125 = AXIS2_PLACEMENT_3D ( 'NONE', #46, #172, #207 ) ;
#126 = FACE_OUTER_BOUND ( 'NONE', #157, .T. ) ;
#127 = DIRECTION ( 'NONE',  ( -0.0000000000000000000, -0.0000000000000000000, -1.000000000000000000 ) ) ;
#128 = DIRECTION ( 'NONE',  ( -0.0000000000000000000, -0.0000000000000000000, -1.000000000000000000 ) ) ;
#129 = EDGE_CURVE ( 'NONE', #185, #198, #105, .T. ) ;
#130 = DIRECTION ( 'NONE',  ( 0.0000000000000000000, 0.0000000000000000000, 1.000000000000000000 ) ) ;
#131 = CARTESIAN_POINT ( 'NONE',  ( 0.0000000000000000000, 0.0000000000000000000, 1.800000000000000000 ) ) ;
#132 = DIRECTION ( 'NONE',  ( 1.000000000000000000, 0.0000000000000000000, 0.0000000000000000000 ) ) ;
#133 = SURFACE_STYLE_USAGE ( .BOTH. , #166 ) ;
#134 = ORIENTED_EDGE ( 'NONE', *, *, #176, .T. ) ;
#135 = CARTESIAN_POINT ( 'NONE',  ( 0.0000000000000000000, 0.0000000000000000000, 0.0000000000000000000 ) ) ;
#136 = ORIENTED_EDGE ( 'NONE', *, *, #114, .T. ) ;
#137 =( GEOMETRIC_REPRESENTATION_CONTEXT ( 3 ) GLOBAL_UNCERTAINTY_ASSIGNED_CONTEXT ( ( #34 ) ) GLOBAL_UNIT_ASSIGNED_CONTEXT ( ( #71, #86, #208 ) ) REPRESENTATION_CONTEXT ( 'NONE', 'WORKASPACE' ) );
#138 = CARTESIAN_POINT ( 'NONE',  ( 0.0000000000000000000, 0.0000000000000000000, 0.0000000000000000000 ) ) ;
#139 = SURFACE_STYLE_USAGE ( .BOTH. , #145 ) ;
#140 = ORIENTED_EDGE ( 'NONE', *, *, #176, .F. ) ;
#141 = ADVANCED_FACE ( 'NONE', ( #180 ), #60, .F. ) ;
#142 = EDGE_LOOP ( 'NONE', ( #112, #162 ) ) ;
#143 = FACE_BOUND ( 'NONE', #37, .T. ) ;
#144 = DIRECTION ( 'NONE',  ( 1.000000000000000000, 0.0000000000000000000, 0.0000000000000000000 ) ) ;
#145 = SURFACE_SIDE_STYLE ('',( #199 ) ) ;
#146 = CARTESIAN_POINT ( 'NONE',  ( 0.0000000000000000000, 0.0000000000000000000, 1.800000000000000000 ) ) ;
#147 = AXIS2_PLACEMENT_3D ( 'NONE', #63, #160, #44 ) ;
#148 = FILL_AREA_STYLE ('',( #12 ) ) ;
#149 = FILL_AREA_STYLE_COLOUR ( '', #107 ) ;
#150 = ORIENTED_EDGE ( 'NONE', *, *, #73, .T. ) ;
#151 = CIRCLE ( 'NONE', #178, 7.500000000000000000 ) ;
#152 = EDGE_CURVE ( 'NONE', #24, #53, #158, .T. ) ;
#153 = LINE ( 'NONE', #61, #111 ) ;
#154 = CLOSED_SHELL ( 'NONE', ( #65, #9, #164, #26, #95, #141 ) ) ;
#155 = PRODUCT_DEFINITION_FORMATION_WITH_SPECIFIED_SOURCE ( 'ANY', '', #42, .NOT_KNOWN. ) ;
#156 =( LENGTH_UNIT ( ) NAMED_UNIT ( * ) SI_UNIT ( .MILLI., .METRE. ) );
#157 = EDGE_LOOP ( 'NONE', ( #69, #134, #118, #22 ) ) ;
#158 = CIRCLE ( 'NONE', #43, 5.250000000000000000 ) ;
#159 = ORIENTED_EDGE ( 'NONE', *, *, #114, .F. ) ;
#160 = DIRECTION ( 'NONE',  ( 0.0000000000000000000, 0.0000000000000000000, 1.000000000000000000 ) ) ;
#161 = CARTESIAN_POINT ( 'NONE',  ( -7.500000000000000000, 0.0000000000000000000, 1.800000000000000000 ) ) ;
#162 = ORIENTED_EDGE ( 'NONE', *, *, #38, .F. ) ;
#163 = EDGE_CURVE ( 'NONE', #106, #198, #153, .T. ) ;
#164 = ADVANCED_FACE ( 'NONE', ( #17, #68 ), #11, .T. ) ;
#165 = CARTESIAN_POINT ( 'NONE',  ( -7.500000000000000000, 0.0000000000000000000, 0.0000000000000000000 ) ) ;
#166 = SURFACE_SIDE_STYLE ('',( #197 ) ) ;
#167 = CYLINDRICAL_SURFACE ( 'NONE', #2, 5.250000000000000000 ) ;
#168 = CARTESIAN_POINT ( 'NONE',  ( 0.0000000000000000000, 0.0000000000000000000, 1.800000000000000000 ) ) ;
#169 =( GEOMETRIC_REPRESENTATION_CONTEXT ( 3 ) GLOBAL_UNCERTAINTY_ASSIGNED_CONTEXT ( ( #48 ) ) GLOBAL_UNIT_ASSIGNED_CONTEXT ( ( #156, #103, #122 ) ) REPRESENTATION_CONTEXT ( 'NONE', 'WORKASPACE' ) );
#170 = VERTEX_POINT ( 'NONE', #49 ) ;
#171 = CARTESIAN_POINT ( 'NONE',  ( 0.0000000000000000000, 0.0000000000000000000, 1.800000000000000000 ) ) ;
#172 = DIRECTION ( 'NONE',  ( -0.0000000000000000000, -0.0000000000000000000, -1.000000000000000000 ) ) ;
#173 = FILL_AREA_STYLE ('',( #149 ) ) ;
#174 = DIRECTION ( 'NONE',  ( -1.000000000000000000, 0.0000000000000000000, 0.0000000000000000000 ) ) ;
#175 = EDGE_LOOP ( 'NONE', ( #100, #110 ) ) ;
#176 = EDGE_CURVE ( 'NONE', #170, #53, #10, .T. ) ;
#177 = MANIFOLD_SOLID_BREP ( 'Boss.-Extru.1', #154 ) ;
#178 = AXIS2_PLACEMENT_3D ( 'NONE', #171, #188, #94 ) ;
#179 = LINE ( 'NONE', #113, #80 ) ;
#180 = FACE_OUTER_BOUND ( 'NONE', #18, .T. ) ;
#181 = VERTEX_POINT ( 'NONE', #161 ) ;
#182 = SHAPE_DEFINITION_REPRESENTATION ( #45, #91 ) ;
#183 = EDGE_CURVE ( 'NONE', #3, #170, #54, .T. ) ;
#184 = DIRECTION ( 'NONE',  ( 0.0000000000000000000, 0.0000000000000000000, 1.000000000000000000 ) ) ;
#185 = VERTEX_POINT ( 'NONE', #165 ) ;
#186 = EDGE_CURVE ( 'NONE', #170, #3, #59, .T. ) ;
#187 = CIRCLE ( 'NONE', #147, 7.500000000000000000 ) ;
#188 = DIRECTION ( 'NONE',  ( 0.0000000000000000000, 0.0000000000000000000, 1.000000000000000000 ) ) ;
#189 = ORIENTED_EDGE ( 'NONE', *, *, #152, .T. ) ;
#190 = DIRECTION ( 'NONE',  ( 1.000000000000000000, 0.0000000000000000000, -0.0000000000000000000 ) ) ;
#191 = DIRECTION ( 'NONE',  ( 0.0000000000000000000, 0.0000000000000000000, 1.000000000000000000 ) ) ;
#192 = AXIS2_PLACEMENT_3D ( 'NONE', #135, #78, #1 ) ;
#193 = CARTESIAN_POINT ( 'NONE',  ( -5.250000000000000000, 0.0000000000000000000, 1.800000000000000000 ) ) ;
#194 = DIRECTION ( 'NONE',  ( 0.0000000000000000000, 0.0000000000000000000, 1.000000000000000000 ) ) ;
#195 = AXIS2_PLACEMENT_3D ( 'NONE', #29, #85, #190 ) ;
#196 = FACE_OUTER_BOUND ( 'NONE', #93, .T. ) ;
#197 = SURFACE_STYLE_FILL_AREA ( #148 ) ;
#198 = VERTEX_POINT ( 'NONE', #72 ) ;
#199 = SURFACE_STYLE_FILL_AREA ( #173 ) ;
#200 = STYLED_ITEM ( 'NONE', ( #119 ), #91 ) ;
#201 = EDGE_LOOP ( 'NONE', ( #77, #62, #57, #82 ) ) ;
#202 = PRODUCT_RELATED_PRODUCT_CATEGORY ( 'part', '', ( #42 ) ) ;
#203 = VECTOR ( 'NONE', #36, 1000.000000000000000 ) ;
#204 = CARTESIAN_POINT ( 'NONE',  ( 0.0000000000000000000, 0.0000000000000000000, 1.800000000000000000 ) ) ;
#205 = AXIS2_PLACEMENT_3D ( 'NONE', #211, #130, #144 ) ;
#206 = PLANE ( 'NONE',  #195 ) ;
#207 = DIRECTION ( 'NONE',  ( -1.000000000000000000, 0.0000000000000000000, 0.0000000000000000000 ) ) ;
#208 =( NAMED_UNIT ( * ) SI_UNIT ( $, .STERADIAN. ) SOLID_ANGLE_UNIT ( ) );
#209 = AXIS2_PLACEMENT_3D ( 'NONE', #89, #194, #74 ) ;
#210 = DIRECTION ( 'NONE',  ( 1.000000000000000000, 0.0000000000000000000, -0.0000000000000000000 ) ) ;
#211 = CARTESIAN_POINT ( 'NONE',  ( 0.0000000000000000000, 0.0000000000000000000, 0.0000000000000000000 ) ) ;
#212 = CARTESIAN_POINT ( 'NONE',  ( 5.250000000000000000, 6.429395695523604200E-016, 1.800000000000000000 ) ) ;
#213 = DIRECTION ( 'NONE',  ( -1.000000000000000000, 0.0000000000000000000, 0.0000000000000000000 ) ) ;
#214 = MECHANICAL_DESIGN_GEOMETRIC_PRESENTATION_REPRESENTATION (  '', ( #200 ), #169 ) ;
ENDSEC;
END-ISO-10303-21;
